Stolica.ru Реклама на Куличках     

Аккорды песен:
A B C D E F G H I J K L M N O P Q R S T U V W X Y Z
АБВГДЕЖЗИКЛМНОПРСТУФХЦЧШЩЭЮЯ





Тексты песен :     A B C D E F G H I J K L M N O P Q R S T U V W X Y Z #

ПОЛНЫЙ СПИСОК ПЕСЕН ГРУППЫ




-->




АРИЯ   
	 
Закат
-----
tabbed by Vladimir Gelfand ("Little Prince")


Tempo: slow (63 bpm)

(0:01 - 0:15)

INTRO: (Gtr.1 = acoustic; Synth = synthesizer arranged for guitar)

Gtr.1E|---------------------------------|---------------------------------|
     H|---------------------------------|---------------------------------|
     G|-----0-------0-------0-------0---|-----0-------0-------0-------0---|
     D|---2---2---2---2---2---2---4---4-|---2---2---2---2---2---2---4---4-|
     A|-2-------2-------3-------5-------|-2-------2-------3-------5-------|
     E|---------------------------------|---------------------------------|
      |                                 |                                 |
SynthE|---------------------------------|---------------------------------|
     H|---------------------------------|-----------------7---------------|
     G|-4---------------5---------------|-4-----------------------7-------|
     D|-------------------------7-------|---------------------------------|
     A|---------------------------------|---------------------------------|
     E|---------------------------------|---------------------------------|
 
Gtr.1E|---------------------------------|---------------------------------|
     H|---------------------------------|---------------------------------|
     G|-----0-------0-------0-------0---|-----0-------0-------0-------0---|
     D|---2---2---2---2---2---2---4---4-|---2---2---2---2---2---2---4---4-|
     A|-2-------2-------3-------5-------|-2-------2-------3-------5-------|
     E|---------------------------------|---------------------------------|
      |                                 |                                 |
SynthE|---------------------------------|---------------------------------|
     H|---------------------------------|---------------------------------|
     G|-4---------------5---------------|-4-------------------------------|
     D|--------------------------7------|-----------------5-------4-------|
     A|---------------------------------|---------------------------------|
     E|---------------------------------|---------------------------------|

(0:15 - 0:45)

VERSE 1:

VoiceE|-------------------------------------------------------------------|
     H|-------------------------------------------------------------------|
     G|--4--------------5----4-2----------4--2--0-2------------4----------|
     D|---------5--2--------------------------------2-0---2---------------|
     A|-------------------------------------------------------------------|
     E|-Ya     vizhu,  kak  zakat      styokla  okonnye pla - vit --------|
      |                                 |                                 |
Gtr.1E|-Em------0-------Am------0-------|-D-----2-3-2-----Em------0-------|
     H|-------0---0-----------1---1-----|-----3-------3---------0---0-----|
     G|-----0-------0-------2-------2---|---2-----------2-----0-------0---|
     D|---2-----------2---2-----------2-|-0-----------------2-----------2-|
     A|-----------------0---------------|---------------------------------|
     E|-0-------------------------------|-----------------0---------------|
      |                                 |                                 |
SynthE|---------------------------------|---------------------------------|
     H|---------------------------------|---------------------------------|
     G|---------------------------------|---------------------------------|
     D|-2-------------------------------|---------------------------------|
     A|---------------------------------|---------------------------------|
     E|---------------------------------|---------------------------------|
 
VoiceE|-------------------------------------------------------------------|
     H|-------------------------------------------------------------------|
     G|---------4--------5----4--2----------------------------------------|
     D|--2---------5--2------------5------4-5---4------5--4---------------|
     A|-------------------------------------------------------------------|
     E|-Den'  prozhit,a noch' ostavit    teni snov   v uglah. ------------|
      |                                 |                                 |
Gtr.1E|-Em------0-------Am------0-------|-F#--------2-----H-------2-------|
     H|-------0---0-----------1---1-----|---------2---2-----4---4---4-----|
     G|-----0-------0-------2-------2---|---3---3-------3-4---4-------4---|
     D|---2-----------2---2-----------2-|-4---4-------------------------4-|
     A|-----------------0---------------|---------------------------------|
     E|-0-------------------------------|---------------------------------|
 
VoiceE|-------------------------------------------------------------------|
     H|-------------------------------------------------------------------|
     G|--4--------------5-----4--2-------4-2-0---2-------------4----------|
     D|-----------5--2------------------------------2--0--2---------------|
     A|-------------------------------------------------------------------|
     E| Mne      ne vernut'  nazad      seruyu ptitzu pecha - li ---------|
      |                                 |                                 |
Gtr.1E|-Em------0-------Am------0-------|-D-----2-3-2-----Em------0-------|
     H|-------0---0-----------1---1-----|-----3-------3---------0---0-----|
     G|-----0-------0-------2-------2---|---2-----------2-----0-------0---|
     D|---2-----------2---2-----------2-|-0-----------------2-----------2-|
     A|-----------------0---------------|---------------------------------|
     E|-0-------------------------------|-----------------0---------------|
 
VoiceE|-------------------------------------------------------------------|
     H|-------------------------------------------------------------------|
     G|---------4-----------5---4--2--------------------------------------|
     D|---2---------5---2------------5----4--5-----4--5-4-----------------|
     A|-------------------------------------------------------------------|
     E|Vsyo v proshlom,tak bystro tayut  zamki  v  oblakah. --------------|
      |                                 |                                 |
Gtr.1E|-Em------0-------Am------0-------|-F#--------2-----H-------2-------|
     H|-------0---0-----------1---1-----|---------2---2-----4---4---------|
     G|-----0-------0-------2-------2---|---3---3-------3-4---4-----------|
     D|---2-----------2---2-----------2-|-4---4---------------------------|
     A|-----------------0---------------|---------------------------------|
     E|-0-------------------------------|---------------------------------|

(0:46 - 1:16)

CHORUS (rhythm: d-downstroke, u-upstroke):

VoiceE|-------------------------------------------------------------------|
     H|--3----------------------------------------------------------------|
     G|-------------5---4-------------------------5---4-2---4--5----------|
     D|--------------------2----------------------------------------------|
     A|-------------------------------------------------------------------|
     E|-Ta - am   vse  zhivy,                   kto lyubil menya ---------|
      |                                 |                                 |
Gtr.1E|-0-E7--0-0-----0-0-0-0---0---0-0-|-0-Am--0-0-----0-0-0-0---0---0-0-|
     H|-3-----3-3-----3-3-3-3---3---3-3-|-1-----1-1-----1-1-1-1---1---1-1-|
     G|-1-----1-1-----1-1-1-1---1---1-1-|-2-----2-2-----2-2-2-2---2---2-2-|
     D|-2-----2-2-----2-2-2-2---2---2-2-|-2-----2-2-----2-2-2-2---2---2-2-|
     A|-2-----2-2-----2-2-2-2---2---2-2-|-0-----0-0-----0-0-0-0---0---0-0-|
     E|-0-----0-0-----0-0-0-0---0---0-0-|-0-----0-0-----0-0-0-0---0---0-0-|
      | d     u d     u d u d   d   d u | d     u d     u d u d   d   d u |
Bass G|---------------------9-10-9-------|---------------------------------|
     D|-----------------6-9-------9-----|-7---------------7---------------|
     A|-5-----------7-9-------------7-7-|---------------7---7---------0-2-|
     E|---------------------------------|---------------------5-----------|
 
VoiceE|-------------------------------------------------------------------|
     H|-------------------------------------------------------------------|
     G|------5--5--5---4---2--------------4--------2----------------------|
     D|-------------------------5----4--5-----------------4--4------------|
     A|-------------------------------------------------------------------|
     E|--- gde voshod kak prazdnik  beskone  -  chnoy   zhizni. ----------|
      |                                 |                                 |
Gtr.1E|-3-C---3-3-----3-3-3-3---3---3-3-|-2-Hm--2-2-----2-2-2-2---2-------|
     H|-5-----5-5-----5-5-5-5---5---5-5-|-3-----3-3-----3-3-3-3---3-------|
     G|-5-----5-5-----5-5-5-5---5---5-5-|-4-----4-4-----4-4-4-4---4-------|
     D|-5-----5-5-----5-5-5-5---5---5-5-|-4-----4-4-----4-4-4-4---4-------|
     A|-3-----3-3-----3-3-3-3---3---3-3-|-2-----2-2-----2-2-2-2---2-------|
     E|-3-----3-3-----3-3-3-3---3---3-3-|-2-----2-2-----2-2-2-2---2-------|
      | d     u d     u d u d   d   d u | d     u d     u d u d   d       |
Bass G|---------------------------------|---------------------------------|
     D|---------------------------------|---------------------------------|
     A|-3---------------3---3---3---3---|-2---------------2---------------|
     E|-----------0h3-------------------|-----------0h2-------------------|
 
VoiceE|-------------------------------------------------------------------|
     H|--3----------------------------------------------------------------|
     G|-----------5------4------------------------5-4--2--4--5------------|
     D|--------------------2----------------------------------------------|
     A|-------------------------------------------------------------------|
     E|-Ta - am  net schyota                     rekam i moryam ----------|
      |                                 |                                 |
Gtr.1E|-0-E7--0-0-----0-0-0-0---0---0-0-|-0-Am--0-0-----0-0-0-0---0---0-0-|
     H|-3-----3-3-----3-3-3-3---3---3-3-|-1-----1-1-----1-1-1-1---1---1-1-|
     G|-1-----1-1-----1-1-1-1---1---1-1-|-2-----2-2-----2-2-2-2---2---2-2-|
     D|-2-----2-2-----2-2-2-2---2---2-2-|-2-----2-2-----2-2-2-2---2---2-2-|
     A|-2-----2-2-----2-2-2-2---2---2-2-|-0-----0-0-----0-0-0-0---0---0-0-|
     E|-0-----0-0-----0-0-0-0---0---0-0-|-0-----0-0-----0-0-0-0---0---0-0-|
      | d     u d     u d u d   d   d u | d     u d     u d u d   d   d u |
Bass G|---------------------9-10-9-------|---------------------------------|
     D|-----------------6-9-------9-----|-7---------------7---------------|
     A|-5-----------7-9-------------7-7-|---------------7---7---------0-2-|
     E|---------------------------------|---------------------5-----------|
 
                                         1.----------------------------->
VoiceE|-------------------------------------------------------------------|
     H|-------------------------------------------------------------------|
     G|------5--5--5--4-----2-------------4-------------------------------|
     D|------------------------5--4-----5---------------------------------|
     A|-------------------------------------------------------------------|
     E|---- no po nim nel'zya doplyt'  domoy... --------------------------|
      |                                 |                                 |
Gtr.1E|-3-C---3-3-----3-3-3-3---3---3-3-|-2-H---2-2-2-2---2---------------|
     H|-5-----5-5-----5-5-5-5---5---5-5-|-4-----4-4-4-4---4---------------|
     G|-5-----5-5-----5-5-5-5---5---5-5-|-4-----4-4-4-4---4---------------|
     D|-5-----5-5-----5-5-5-5---5---5-5-|-4-----4-4-4-4---4---------------|
     A|-3-----3-3-----3-3-3-3---3---3-3-|-2-----2-2-2-2---2---------------|
     E|-3-----3-3-----3-3-3-3---3---3-3-|-2-----2-2-2-2---2---------------|
      | d     u d     u d u d   d   d u | d     u d u d   d               |
Bass G|---------------------------------|---------------------------------|
     D|---------------------------------|---------------------------------|
     A|-3---------------3---3---3---3---|-2---------------2---------------|
     E|-----------0h3-------------------|-----------0h2-------------------|

(1:16 - 1:31) Repeat INTRO

(1:32 - 2:02) VERSE 2

(2:02 - 2:33) CHORUS, with alternative ending:

                                          2.----------------------------->
             no po nim nel'zya doplyt' domoy...
Gtr.1E|-3-C---3-3-----3-3-3-3---3---3-3-|-2-H---2-2-2-2---2---------------|
     H|-5-----5-5-----5-5-5-5---5---5-5-|-4-----4-4-4-4---4-R-------------|
     G|-5-----5-5-----5-5-5-5---5---5-5-|-4-----4-4-4-4---4-E-------4-----|
     D|-5-----5-5-----5-5-5-5---5---5-5-|-4-----4-4-4-4---4-S---5-7---7p5p4-|
     A|-3-----3-3-----3-3-3-3---3---3-3-|-2-----2-2-2-2---2-T-------------|
     E|-3-----3-3-----3-3-3-3---3---3-3-|-2-----2-2-2-2---2---------------|
      |                                 |                                 |
Bass G|---------------------------------|-------------------R-------------|
     D|---------------------------------|-------------------E-------------|
     A|-3---------------3---3---3---3---|-2---------------2-S-------------|
     E|-----------0h3-------------------|-----------0h2-----T-------------|

(2:33 - 2:59)

INTERLUDE: (Gtr.1 plays the chords indicated)

         G                                D
VoiceE|---------------------------------|---------------------------------|
     H|---------------------------------|---------------------------------|
     G|-------4---4--4----------2-----4--5-----4-4-----2-2----------------|
     D|-----------------5-----5---------|---------------------------------|
     A|---------------------------------|---------------------------------|
     E|----- Voz'mi menya  s soboy,  purpur - naya    reka  --------------|
         G                                D
VoiceE|---------------------------------|---------------------------------|
     H|---------------------------------|---------------------------------|
     G|-------4-----4-4--------2-------4--2-------------------------------|
     D|-----------------5---5-----------|---------4-----------------------|
     A|---------------------------------|--------------5------------------|
     E|---- Proch'  unesi  menya    s soboy,     za - kat. ---------------|
         Am                               C
VoiceE|---------------------------------|---------------------------------|
     H|---------------------------------|---------------------------------|
     G|-------2--2-----------------2----|-2-------------------------------|
     D|--------------5--5-----4--5------|-----5----5-4----5-4---2---------|
     A|---------------------------------|---------------------------------|
     E|----- Toska   o tom,chto bylo,  rvyotsya  cherez kra-a - ay -------|
         Hm
VoiceE|---------------------------------|
     H|---------------------------------|
     G|---------------------------------|
     D|-------4----4----4---------2--4--|
     A|--------------------5-2----------|
     E|----- pod kri - ki seryh ptichih |

(3:00 - 3:29)

ACOUSTIC SOLO:

VoiceE|---------------------------------------------------------------------------------------------------|
     H|---------------------------------------------------------------------------------------------------|
     G|---------------------------------------------------------------------------------------------------|
     D|--2------------------------------------------------------------------------------------------------|
     A|---------------------------------------------------------------------------------------------------|
     E|stay...--------------------------------------------------------------------------------------------|
      |                                                 |                                                 |
Gtr.1E|-------------------------------------------------|-------------------------------------------------|
(acu)H|------------------0----0h3-----------5-----------|-7-----------------------------------------------|
     G|-------------------------------------------------|-----------------9-------------------------------|
     D|-------------------------------------------------|---------------------9---------------------------|
     A|-------------------------------------------------|-------------------------9b10r9--7---------------|
     E|-------------------------------------------------|-------------------------------------------------|
      |                                                 |                                                 |
RhytmE|-------------------------------------------------|-------------------------------------------------|
  +  H|-------------------------------------------------|-------------------------------------------------|
drumsG|---R-----------R-----------R-----------R-----R---|---R-----------R-----------R-----------R-----R---|
     D|---E-----------E-----------E-----------E-----E---|---E-----------E-----------E-----------E-----E---|
     A|-3-S---3-3-3-3-S---3-3-3-3-S---3-3-3-3-S---3-S---|-2-S---2-2-2-2-S---2-2-2-2-S---2-2-2-2-S---2-S---|
     E|---T-----------T-----------T-----------T-----T---|---T-----------T-----------T-----------T-----T---|
 
Gtr.1E|-------------------------------------7-----------|-------------------------------------------------|
     H|---------------------7-8-10----------------------|-7-----------------------------------------------|
     G|-------------------9-----------------------------|----------------9---7---7h9----------------------|
     D|-------------------------------------------------|-------------------------------------------------|
     A|-------------------------------------------------|-------------------------------------------------|
     E|-------------------------------------------------|-------------------------------------------------|
      |                                                 |                                                 |
RhytmE|-------------------------------------------------|-------------------------------------------------|
  +  H|-------------------------------------------------|-------------------------------------------------|
drumsG|---R-----------R-----------R-----------R-----R---|---R-----------R-----------R-----------R-----R---|
     D|---E-----------E-----------E-----------E-----E---|---E-----------E-----------E-----------E-----E---|
     A|-3-S---3-3-3-3-S---3-3-3-3-S---3-3-3-3-S---3-S---|-2-S---2-2-2-2-S---2-2-2-2-S---2-2-2-2-S---2-S---|
     E|---T-----------T-----------T-----------T-----T---|---T-----------T-----------T-----------T-----T---|
 
Gtr.1E|-------------------------------------------------|-------------------------------------------------|
     H|-6-(6)/8-\6--------------------------------------|-------------------------------------------------|
     G|-------------7-(7)/9-\7--------------------------|-11----------------------------------------------|
     D|-- gliss ----------------8-(8)/10\8--------------|-----11------------------------------------------|
     A|-------------------------------------8-----------|---------9---9b10r9------------------------------|
     E|-------------------------------------------------|-------------------------------------------------|
      |                                                 |                                                 |
RhytmE|-------------------------------------------------|-------------------------------------------------|
  +  H|-------------------------------------------------|-------------------------------------------------|
drumsG|---R-----------R-----------R-----------R-----R---|---R-----------R-----------R-----------R-----R---|
     D|---E-----------E-----------E-----------E-----E---|---E-----------E-----------E-----------E-----E---|
     A|-3-S---3-3-3-3-S---3-3-3-3-S---3-3-3-3-S---3-S---|-2-S---2-2-2-2-S---2-2-2-2-S---2-2-2-2-S---2-S---|
     E|---T-----------T-----------T-----------T-----T---|---T-----------T-----------T-----------T-----T---|
 
Gtr.1E|-------------------------------------------------|-------------------7-----7-----------------------|
     H|-6-(6)/8-\6--------------------------------------|-------------7-8---------------------------------|
     G|-------------7-(7)/9-\7--------------------------|-----8---9---------------------------------------|
     D|-- gliss ----------------8-(8)/10\8--------------|-9-----------------------------------------------|
     A|-------------------------------------8-----------|-------------------------------------------------|
     E|-------------------------------------------------|-------------------------------------------------|
      |                                                 |                                                 |
RhytmE|-------------------------------------------------|-------------------------------------------------|
  +  H|-------------------------------------------------|-------------------------------------------------|
drumsG|---R-----------R-----------R-----------R-----R---|---R-----------R-----------R-----------R-----R---|
     D|---E-----------E-----------E-----------E-----E---|---E-----------E-----------E-----------E-----E---|
     A|-3-S---3-3-3-3-S---3-3-3-3-S---3-3-3-3-S---3-S---|-2-S---2-2-2-2-S---2-2-2-2-S---2-2-2-2-S---2-S---|
     E|---T-----------T-----------T-----------T-----T---|---T-----------T-----------T-----------T-----T---|

(3:29 - 3:58)

MAIN SOLO:

Lead E|-------------------------------------------------|-------------------------------------------------|
     H|-11~~~-------------------10~~~~~~~~--------------|-------------------------------------------------|
     G|-------------------------------------12~~~~~-----|-------12~~~~~~~--------------9~~~~~~~-----------|
     D|----------------------------------------------12-|-12/14---------------9-9-9/12--------------------|
     A|-------------------------------------------------|-------------------------------------------------|
     E|-------------------------------------------------|-------------------------------------------------|
      |                                                 |                                                 |
RhytmE|-------------------------------------------------|-------------------------------------------------|
  +  H|-------------------------------------------------|-------------------------------------------------|
drumsG|---R-----------R-----------R---------------------|---R-----------R-----------R---------------------|
     D|---E-----------E-----------E---------------------|---E-----------E-----------E---------------------|
     A|-3-S---3-3-3-3-S---3-3-3-3-S---3-3-3-3-3-3-3-3-3-|-2-S---2-2-2-2-S---2-2-2-2-S---2-2-2-2-2-2-2-2-2-|
     E|---T-----------T-----------T---------------------|---T-----------T-----------T---------------------|
 
Lead E|-------------------------------------------------|-------------------------------------------------|
     H|-------------------------------------------------|-------------------------------------------------|
     G|-11~~~--12p11------------------------------------|-11----12p11-------------------------------------|
     D|-------------12----------12/14-------------------|------------12-----------12-\9-------------------|
     A|-------------------------------------------------|-------------------------------------------------|
     E|-------------------------------------------------|-------------------------------------------------|
      |                                                 |                                                 |
RhytmE|-------------------------------------------------|-------------------------------------------------|
  +  H|-------------------------------------------------|-------------------------------------------------|
drumsG|---R-----------R-----------R---------------------|---R-----------R-----------R---------------------|
     D|---E-----------E-----------E---------------------|---E-----------E-----------E---------------------|
     A|-3-S---3-3-3-3-S---3-3-3-3-S---3-3-3-3-3-3-3-3-3-|-2-S---2-2-2-2-S---2-2-2-2-S---2-2-2-2-2-2-2-2-2-|
     E|---T-----------T-----------T---------------------|---T-----------T-----------T---------------------|
 
Lead E|-------------------------------------------------|-------------------------------------------------|
     H|-11----------11------(11)bend13release11~~~~~~~~-|-11----------11-----(11)bend13release11~~~~~~~~--|
     G|---10--10--10------------------------------------|---11--11--11------------------------------------|
     D|-----12--12--------------------------------------|-----12--12--------------------------------------|
     A|-------------------------------------------------|-------------------------------------------------|
     E|-------------------------------------------------|-------------------------------------------------|
      |                                                 |                                                 |
RhytmE|-------------------------------------------------|-------------------------------------------------|
  +  H|-------------------------------------------------|-------------------------------------------------|
drumsG|---R-----------R-----------R---------------------|---R-----------R-----------R---------------------|
     D|---E-----------E-----------E---------------------|---E-----------E-----------E---------------------|
     A|-3-S---3-3-3-3-S---3-3-3-3-S---3-3-3-3-3-3-3-3-3-|-2-S---2-2-2-2-S---2-2-2-2-S---2-2-2-2-2-2-2-2-2-|
     E|---T-----------T-----------T---------------------|---T-----------T-----------T---------------------|
 
Lead E|-13p10--------- T ------------------------------------------------|-11--------------11--12--11~~~~~~~~~~~~~~~~~-----|
     H|------13p11h13-15p13p11--------- T ----------------------11-------|-----12------------------------------------------|
     G|-----------------------12p10h12-15p12p10-----------10b12----rel10-|---------11--------------------------------------|
     D|----------------------------------------12p10---------- hold -----|-------------13----------------------------------|
     A|---------------------------------------------13p10----- bend -----|-------------------------------------------------|
     E|------------------------------------------------------------------|-------------------------------------------------|
      |                                                 |                                                 |
RhytmE|-------------------------------------------------|-------------------------------------------------|
  +  H|-------------------------------------------------|-------------------------------------------------|
drumsG|---R-----------R-----------R---------------------|---R-----------R-----------R---------------------|
     D|---E-----------E-----------E---------------------|---E-----------E-----------E---------------------|
     A|-3-S---3-3-3-3-S---3-3-3-3-S---3-3-3-3-3-3-3-3-3-|-2-S---2-2-2-2-S---2-2-2-2-S---2-2-2-2-2-2-2-2-2-|
     E|---T-----------T-----------T---------------------|---T-----------T-----------T---------------------|

(3:58 - 4:06)

FAST PART: (free time)

Lead E|----------------------------10--7-8-10-8-7------------------------|
     H|--------------------10---6/8--10----------10-8-7---7-8h10p8p7-------|
     G|-------------9---5/7---9-------------------------9----------9-7-5-|
     D|-----9---5/7---9--------------------------------------------------|
     A|-5/7---9----------------------------------------------------------|
     E|------------------------------------------------------------------|
Lead E|--------------------------------------------------------------------------------|----------------|
     H|------------------------------------ slower ------------------------------------|----------------|
     G|---5-7-9-7-5--------------------------------------------------------------------|----------------|
     D|-9-----------9-7-5---5-7h9-7-5---------------------4----------4----------T------|----------------|
     A|-------------------9-----------9-7-6----9--6----7-----7--6------6p5p3----10p3---|-2--------------|
     E|--------------------------------------------------------------------------------|----------------|

(4:06 - 4:21) Repeat INTRO

(4:21 - 4:44) VERSE 3 as half of VERSE 1:

VoiceE|-------------------------------------------------------------------|
     H|-------------------------------------------------------------------|
     G|--4--------------5----4-2----------4--2--0-2------------4----------|
     D|---------5--2--------------------------------2-0---2---------------|
     A|-------------------------------------------------------------------|
     E|-Ya     vizhu,  kak  zakat      styokla  okonnye pla - vit --------|
      |                                 |                                 |
Gtr.1E|-0-Em------------0-Am------------|-2-D-------------0-Em------------|
     H|-0---------------1---------------|-3---------------0---------------|
     G|-0---------------2---------------|-2---------------0---------------|
     D|-2---------------2---------------|-0---------------2---------------|
     A|-2---------------0---------------|-0---------------2---------------|
     E|-0---------------0---------------|-0---------------0---------------|
 
VoiceE|------------------------------------------------------ ritenuto ---|
     H|-------------------------------------------------------------------|
     G|--------4----------5-----4--2--------------------------------------|
     D|-2---------5----2-------------5-----4------5-------4----------5----|
     A|-------------------------------------------------------------------|
     E|-Den' prozhit,  a noch'  ostavit   te  -  ni     snov     v   ug - |
      |                                 |                                 |
Gtr.1E|-0-Em------------0-Am------------|-2-F#------------2-H-------------|
     H|-0---------------1---------------|-2---------------4---------------|
     G|-0---------------2---------------|-3---------------4---------------|
     D|-2---------------2---------------|-4---------------4---------------|
     A|-2---------------0---------------|-4---------------2---------------|
     E|-0---------------0---------------|-2---------------2---------------|
 
VoiceE|-------------------------------------------------------------------|
     H|-------------------------------------------------------------------|
     G|-------------------------------------------------------------------|
     D|--2----------------------------------------------------------------|
     A|-------------------------------------------------------------------|
     E|-lah...... --------------------------------------------------------|
      |                                 |                                 |
Gtr.1E|-0----0--Em----------------------|---------------------------------|
     H|--0---0--------------------------|---------------------------------|
     G|---0--0--------------------------|---------------------------------|
     D|----2-2--------------------------|---------------------------------|
     A|------2--------------------------|---------------------------------|
     E|------0--------------------------|---------------------------------|


           "Закат" (со сборника "2000 и одна ночь")
           ----------------------------------------
Tabbed by: Александр Новосельцев
\Это мой первый опыт в написании табов, так что не судите слишком строго.
\Буду искренне благодарен за любые поправки (а они, по-моему, должны быть, 
\потому что в некоторых местах я не очень уверен), которые прошу присылать
\по адресу: novav@mail.ru.

Интродукция:
e|-----4-2-0h2p0-----------|---4-2-0h2p0---------------|
B|---0-----------4-2--2--0-|--0----------4-2--0--2-2-4-|
G|-1-----------------------|-1-------------------------|
D|-------------------------|---------------------------|
A|--------------------0--2-|---------------------0-0-2-|
E|-----0-------------------|---0-----------------------|

e|-0-----0-2-----0-4-----2-0h2p0-----------0--------0--|
B|---2-------4-------0-----------4-2-0--2--------4-----|
G|-----2-------4-------1-------------------------------|
D|-----------------------------------------------------|
A|-0-------2----------------------------0-----2--------|
E|-----------------0--------------------------------0--|

e|-----4-2-0h2p0-----------|---4-2-0h2p0---------------|
B|---0-----------4-2--2--0-|--0----------4-2--0--2-2-4-|
G|-1-----------------------|-1-------------------------|
D|-------------------------|---------------------------|
A|--------------------0--2-|---------------------0-0-2-|
E|-----0-------------------|---0-----------------------|

e|-0-----0-2-----0-4-----2-0-----------0--------|
B|---2-------4-------0-------4-2-0--2------0--4-|
G|-----2-------4-------1------------------0-----|
D|---------------------------------------2------|
A|-0-------2------------------------0------2----|
E|-----------------0----------------------------|

Проигрыш:
e|---------------------------------|
B|---------------------------------|
G|-----0-------0-------0-------0---|	(Играется 4 раза)
D|-------2-------2---2---2---4---4-|
A|---2-------2-----3-------5-------|
E|-0-------0-----------------------|

1 куплет:
   Em		   Am		   D		      Em
e|---------0---------------0-------------2-3-2h3p2--------------------|
B|-------0---0-----------1---1---------3----------3-------------------|
G|-----0-------0-------2-------2-----2--------------2-----0---0---0---|
D|---2-----------2---2-----------2-0--------------------2---2---2---2-|
A|-----------------0--------------------------------------------------|
E|-0--------------------------------------------------0---------------|
   Я     вижу,     как    закат    стекла оконные     плавит

   Em		   Am		   F#		   B7
e|---------0---------------0---------------2---------------2-------|
B|-------0---0-----------1---1-----------2---2-----------0---0-----|
G|-----0-------0-------2-------2-------3-------3-------2-------2---|
D|---2-----------2---2-----------2---4-----------4---1-----------1-|
A|-----------------0-------------------------------2---------------|
E|-0-------------------------------2-------------------------------|
   День прожит,  а ночь  оставит   тени  снов в углах

	Мне не вернуть назад 
	Cерую птицу печали,
	Все в прошлом, так быстро тают 
	Замки в облаках.

\Вторая половина куплета играется так же, но в конце, перед припевом:
						   B7
						e|---------2-------|
						B|-------0---------|
						G|-----2-----------|
						D|---1-------------|
						A|-2---------------|
						E|-----------------|
Припев (боем):
	E7          Am
	Там все живы, кто любил меня,
     C				       B7
	Где восход, как праздник бесконечной жизни.
	E7	     Am
	Там нет счета рекам и морям,
     C				    B7
	Но по ним нельзя доплыть домой.

Проигрыш.

2 куплет (играется так же, как первый):
	Вновь примирит все тьма,
	Даже алмазы и пепел.
	Друг равен врагу в итоге,
	А итог один...
	Два солнца у меня
	На этом и прошлом свете,
	Их вместе собой укроет 
	Горько-сладкий дым.

Припев.

B|------------------------|
G|-----0-2-4-2h4p2-0------|
D|------------------------|
     G				 D
	Возьми меня с собой, пурпурная река,
     G			      D	
	Прочь унеси меня с собой, закат!
     Am				C
	Тоска о том, что было рвется через край
     Bm				  C
	Под крики серых птичьих стай...

Интродукция (постепенно затихая).


                     Закат (3-й вариант)
                    -------
     Подбор : Edword Kulakov  (2:5026/14.70@fidonet.org)
 Выpажаю особую благодаpность: ВАГАHОВУ СЕРГЕЮ - снимал песню
                               МИХАЙЛОВУ МАКСУ - помогал писать табы

  Вступление: (пеpебоpом)

  1-ая часть

  E --------------------------------------|
  B --------------------------------------|  игpать 4 pаза
  G -----0--------0---------0--------0----|
  D -------2--------2-----4---4----4---4--|
  A ---2--------2-------3--------5--------|
  E -0--------0---------------------------|

  пеpебоp

 E -----0---------0--------2-3-2---------0---------0---------0----------
 B ----0-0-------1-1------3-----3-------0-0-------0-0-------1-1---------
 G ---0---0-----2---2----2-------2-----0---0-----0---0-----2---2--------
 D --2-----2---2-----2--0---------0---2-----2---2-----2---2-----2-------
 A -----------0------------------------------------------0--------------
 E -0--------------------------------0---------0------------------------



 E -----2---------2------|
 B ----2-2-------0-0-----| Игpать 2 pаза
 G ---3---3-----2---2----|
 D --4-----4---1-----1---|
 A -----------2----------|
 E -2--------------------|


 Пpипев: (боем)


 Em              Am
 Там все живы кто любил меня
 C                           H7
 Где восход как пpазник бесконечной жизни
 Em              Am
 Там нет счета pекам и моpям
 C                        H7
 Hо по ним нельзя доплыть домой


 2-ая часть (все тоже самое что и в пеpвой)

 Пpипев:(тот же)

 Пpоигpыш:

 E ---------------------------------------|
 B ---------------------------------------|
 G -0-2-4-24-0----------------------------|
 D ---------------------------------------|
 A ---------------------------------------|
 E ---------------------------------------|


 Куплет: (боем)

 G                     D
 Возми меня с собой пуpпуpная pека
 G                    D
 Пpочь унеси меня с собой закат
 Am                   C
 Тоска о том что было льется чеpез кpай
 Hm                      C C C
 Под кpики сеpых птичьих стай

 Вступление: (тоже 4 pаза)

 3-яя часть (тоже что и пеpвая)


 ТЕКСТ И РИТМ - слушайте песню.


            Закат (4-й вариант)
            --------------------
   Подобрал  : Макс Сушкин aka TheXaM (2:5020/1619.404@FidoNet)


  Вступление (проигрыш):

  Em      Em       C       D
|------------------------------------|
|--------0--------0--------1-------3-|
|------0--------0--------0-------2---| (X4)
|----2--------2--------2-------0-----|
|--------------------3-------0-------|
|-0---------0------------------------|

  Em     Am       D      Em
  Я вижу,  как закат   стёкла оконные плавит,

|---------0---------------0---------------2-3-2-0----------0--------|
|-------0---0-----------1---1-----------3----------------0---0------|
|-----0-------0-------2-------2-------2----------------0-------0----|
|---2-----------2---2-----------2---0----------------2-----------2--|
|-----------------0-------------------------------------------------|
|-0------------------------------------------------0----------------|

   Em      Am      F#      H7
  День прожит, а ночь оставит   тени снов в углах.

|----------0---------------0---------------2---------------2-------|
|--------0---0-----------1---1-----------2---2-----------0---0-----|
|------0-------0-------2-------2-------3-------3-------2-------2---|
|----2-----------2---2-----------2---4-----------4---1-----------1-|
|------------------0-------------------------------2---------------|
|--0-------------------------------2-------------------------------|

  Дальше так-же:

  Em       Am  D       Em
  Мне не вернуть назад серую птицу печали,
         Am   F#       H7
  Всё в прошлом, так быстро тают замки в облаках.

  Теперь боем:

     E7   Am
    Там все живы, кто любил меня,
   C         H7
    Где восход - как праздник бесконечной жизни,
     E7   Am
    Там нет счёта рекам и морям,
   C     H7
    Hо по ним нельзя доплыть домой.

  Вновь примирит всё тьма, даже алмазы и пепел,
  Друг равен врагу в итоге, а итог один...
  Два солнца у меня на этом и прошлом свете,
  Их вместе собой укроет горько-сладкий дым.

   G         D
    Возьми меня с собой, пурпурная река,
   G      D
    Прочь унеси меня с собой, закат.
   Am         C
    Тоска о том, что было, рвётся через край,
   Hm          C
    Под крики серых птичьих стай.

  Em     Am       D       Em
  Я вижу, как закат стекла оконные плавит,
  Em     Am  F#    H7      Em
  День прожит, а ночь оставит тени снов в углах...



 






                       


Copyright © Музыкальный Портал на Куличках 1999-2007      music@kulichki.com


    Stolica.ru    
Реклама в Интернет