Stolica.ru Реклама на Куличках     

Аккорды песен:
A B C D E F G H I J K L M N O P Q R S T U V W X Y Z
АБВГДЕЖЗИКЛМНОПРСТУФХЦЧШЩЭЮЯ





Тексты песен :     A B C D E F G H I J K L M N O P Q R S T U V W X Y Z #

ПОЛНЫЙ СПИСОК ПЕСЕН ГРУППЫ




-->




АРИЯ   

                   ГРЯЗЬ
         (Терентьев/Kипелов/Пушкинa)
         ---------------------------
tabbed by Vladimir Gelfand ("Little Prince")


Tempo: moderately (135 bpm)

INTRO:

Gtr.1E|--------------------------|
     H|-----------------------1--|
     G|-----------------------2--|
     D|--- drum intro --------2--|
     A|-----------------------0--|
     E|--------------------------|
      |                          |
Bass G|--------------------------|
     D|--------------------------|
     A|--------------------------|
     E|-----------------------5--|

(0:01 - 0:30)

RIFF 1(Play 2 times):

Gtr.1E||--------------------------|-------------------------|-------------------------|-------------------------|
     H||-(1)----------------------|-------------------------|-------------------------|-------------------------|
     G||-(2)----------------------|-------------------------|-------------------------|-------------------5--4--|
     D||-(2)----------2-----------|----------------------3--|(3)-------------------3--|(3)----------------------|
     A||-(0)-0--2--3-----3--2--0--|(0)----0-----0--0-----3--|(3)----------0--2--3-----|-------------------------|
     E||--------------------------|----------------------1--|(1)-0--1--3--------------|-------------------------|
      ||                          |                         |                         |                         |
Gtr.2E||--------------------------|-------------------------|-------------------------|-------------------------|
     H||--------------------------|-------------------------|-------------------5-----|-------------------------|
     G||--------------------------|-------------------------|----------4--5--7--------|-------------------9--7--|
     D||--------------------------|-------------------------|----5--7--------------7~~|(7)~~~~~~~~~-------------|
     A||--------------------------|-------------------------|-------------------------|-------------------------|
     E||--------------------------|-------------------------|-------------------------|-------------------------|
      ||                          |                         |                         |                         |
Bass G||--------------------------|-------------------------|-------------------------|-------------------------|
     D||--------------------------|-------------------------|-------------------------|-------------------------|
     A||--------------------------|-------------------------|-------------------------|----------------------5--|
     E||-(5)----------------------|----------------------1--|(1)----------------------|-------------------------|
 
 Gtr.1E|--------------------------|-------------------------|-------------------------|-------------------------||
      H|--------------------------|-------------------------|-------------------------|----------------------1--||
      G|-(4)----2----------4h5p4h5p4-|(4)----2-----------5--2~~|(2)~~~~~~~~~-------------|----5--5-----7--7-----2--||
      D|-----------3--------------|----------2--------------|-------------------------|----5--5-----7--7-----2--||
      A|--------------------------|-------------------------|-------------------------|----3--3-----5--5-----0--||
      E|--------------------------|-------------------------|-------------------------|-------------------------||
       |                          |                         |                         |                         ||
 Gtr.2E|--------------------------|-------------------------|-------------------------|-------------------------||
      H|--------------------------|-------------------------|-------------------------|-------------------------||
      G|-(7)----5----------7h9p7h9p7-|(7)----5-----------5-----|-------------------------|-------------------------||
      D|-----------7--------------|----------6-----------7~~|(7)~~~~~~~~~-------------|-------------------------||
      A|--------------------------|-------------------------|-------------------------|-------------------------||
      E|--------------------------|-------------------------|-------------------------|-------------------------||
       |                          |                         |                         |                         ||
 Bass G|--------------------------|-------------------------|-------------------------|-------------------------||
      D|--------------------------|-------------------------|-------------------------|-------------------------||
      A|-(5)----------------------|-------------------------|-------------------------|----3--3-----5--5--------||
      E|-----------------------4--|(4)-------------------5--|(5)----------------------|----------------------5--||
(0:30 - 0:37)
Gtr.1 E|--------------------------|--------------------------|------------------------|-------------------------|
      H|--------------------------|--------------------------|------------------------|-------------------------|
      G|-(2)----------------------|-(2)----------------------|-(2)--------------------|-(2)---------------------|
      D|-(2)----------------------|-(2)----------------------|-(2)--------------------|-(2)---------------------|
      A|-(0)-let sound------------|-(0)----------------------|-(0)--------------------|-(0)---------------------|
      E|--------------------------|--------------------------|------------------------|-------------------------|

(0:37 - 1:05)

VERSE 1:
                Za     dver'         ya    vygnan   v  noch',        
Bass G|----------------------------------|----------------------------------|
     D|----------------------------------|--------------------------7-------|
     A|----------------------------------|------------------------------8---|
     E|--5---5---5---5---5---5---5---5---|--5---5---5---5---5---5-----------|
            no  vyiti   von          i    sam  ne   pro - och', 
Bass G|----------------------------------|----------------------------------|
     D|----------------------------------|--------------------------7-------|
     A|-(8)--8---8---8---8---8---8---8---|--8---8---8---8---8---8-------5---|
     E|----------------------------------|----------------------------------|
            ty  bez  menya          hot'   zastre  -  lis',    vse  reshat,
Bass G|----------------------------------|----------------------------------|
     D|----------------------------------|----------------------------------|
     A|-(5)--5---5---5---5---5---5---5---|--5---5---5---5---5---5---7---8---|
     E|----------------------------------|----------------------------------|
           chto  e - to tvoy kapriz,   pov  -  tori    e - go  na  bis.
Bass G|----------------------------------|----------------------------------|
     D|----------------------------------|----------------------------------|
     A|-(8)--7---5-------------------5---|-(5)--3---2-----------------------|
     E|--------------8---7---5---4-------|--------------5---4---1---0-------|
      |                                  |                                  |
Gtr. E|----------------------------------|----------------------------------|
     H|----------------------------------|----------------------------------|
     G|----------------------------------|----------------------------------|
     D|----------------------------------|------------------------------7---|
     A|-----------------------------<5>--|(<5>)-3---2-------------------7---|
     E|----------------------------------|--------------5---4---1---0---5---|

            Da,  ya   uydu,          i   mne  ple  -  vat'.     
Gtr. E|----------------------------------|----------------------------------|
     H|----------------------------------|----------------------------------|
     G|----------------------------------|------4-------5~~~----------------|
     D|-(7)------7-------7-----------7---|-(7)--4-------5~~~------------3---|
     A|-(7)------7-------7-----------7---|-(7)--2-------3~~~------------3---|
     E|-(5)------5-------5-----------5---|-(5)--------------------------1---|

            Ty znayesh' gde         me - nya   is   -  ka - at'.
Gtr. E|----------------------------------|----------------------------------|
     H|----------------------------------|----------------------------------|
     G|----------------------------------|-------------<5>~~~-----------7---|
     D|-(3)------3-------3-----------3---|-(3)--7-------5~~~------------7---|
     A|-(3)------3-------3-----------3---|-(3)--7-------3~~~------------5---|
     E|-(1)------1-------1-----------1---|-(1)--5---------------------------|

           V kvartale  kras  -  nyh       fo - na  -  rey     ya  smo - gu
Gtr. E|----------------------------------|----------------------------------|
     H|----------------------------------|----------------------------------|
     G|-(7)------7-------7-----------10--|-(10)-9-------7-------------------|
     D|-(7)------7-------7-----------10--|-(10)-9-------7-------------------|
     A|-(5)------5-------5-----------8---|-(8)--7-------5-------5---7--<8>--|
     E|----------------------------------|----------------------------------|

             tebya  zabyt'  bystrey,  e   -   to   de - lo dvuh nochey.
Gtr. E|----------------------------------|----------------------------------|
     H|----------------------------------|----------------------------------|
     G|----------------------------------|----------------------------------|
     D|----------------------------------|------------------------------3---|
     A|(<8>)-7---5------------------<5>--|(<5>)-3---2-------------------3---|
     E|--------------8---7---5---4-------|--------------5---4---1---0---1---|
(1:05 - 1:19)
BRIDGE:
VoiceE|--------------------------------------------------------------------|
     H|--------------------------------------------------------------------|
     G|--------7-------7--5---------------8-----7-----5----5---------------|
     D|------------------------------------------------------------6---6---|
     A|--------------------------------------------------------------------|
     E|----   No     hvatit             vrat'   i  vsyo  vre  -  mya  hit- |
      |                                  |                                 |
Gtr.1E|----------------------------------|---------------------------------|
     H|----------------------------------|---------------------------------|
     G|----------------------------------|---------------------------------|
     D|-(3)------------------------------|-6-------------------------------|
     A|-(3)------------------------------|-6-------------------------------|
     E|-(1)------------------------------|-4-------------------------------|
 
VoiceE|--------------------------------------------------------------------|
     H|--------------------------------------------------------------------|
     G|--------------------------------------------------------------------|
     D|--7-----------------------------------------------------------------|
     A|--------------------------------------------------------------------|
     E|- rit'.          ---------------------------------------------------|
      |                                  |                                 |
Gtr.1E|----------------------------------|---------------------------------|
     H|----------------------------------|---------------------------------|  ON 2ND REPEAT w/lick 1
     G|--2-------------------------------|---------------------------------|  ON 3RD REPEAT w/lick 2
     D|--2-------------------------------|-----2-------0-------------------|
     A|--0-----------0-------2-------3---|(3)------------------3-2h3p2p0---|
     E|----------------------------------|---------------------------------|
 
VoiceE|--------------------------------------------------------------------|
     H|--------------------------------------------------------------------|
     G|--------7--------7---5-------------8--------7---5--7--------5---7---|
     D|--------------------------------------------------------------------|
     A|--------------------------------------------------------------------|
     E|---   Zdes'   vsyo  za            den'  -  gi  neslozh  -  no  ku-  |
      |                                  |                                 |
Gtr.1E|----------------------------------|---------------------------------|
     H|----------------------------------|---------------------------------|
     G|----------------------------------|---------------------------------|
     D|--3-------------------------------|-6-------------------------------|
     A|--3-------------------------------|-6-------------------------------|
     E|--1-------------------------------|-4-------------------------------|
 
VoiceE|--------------------------------------------------------------------|
     H|--------------------------------------------------------------------|
     G|--9-----------------------------------------------------------------|
     D|--------------------------------------------------------------------|
     A|--------------------------------------------------------------------|
     E|- pit'.          ---------------------------------------------------|
      |                                  |                                 |
Gtr.1E|----------------------------------|---------------------------------|
     H|----------------------------------|---------------------------------|
     G|----------------------------------|---------------------------------|
     D|--2-----------2-------3-----------|-3-------2-----------------------|
     A|--2-----------2-------3-----------|-3-------2-----------------------|
     E|--0-------0-------0-0-----1---1---|-----------------------------0-0-|
         >       .   >   . . >   .   .     >       >                   . .
(1:19 - 1:34)
CHORUS:
       Kakaya      gryaz'!              Kakaya       vlast'!         I 
Gtr.1E|----------------------------------|---------------------------------|
     H|----------------------------------|---------------------------------|
     G|----------------------------------|---------------------------------|
     D|--2-----------3-------------------|-0-----------2-------------------|
     A|--0-----------5-------------------|-2-----------0-------------------|
     E|------------------------------0-0-|-----------------------------0-0-|
        kak pri  -  yatno  v  e - tu    gryaz'  u  -  past'.          Po -
Gtr.1E|----------------------------------|---------------------------------|
     H|----------------------------------|---------------------------------|
     G|----------------------------------|---------------------------------|
     D|--2-----------3-------------------|-6-------------------------------|
     A|--0-----------5-------------------|-----8------<7>------------------|
     E|----------------------------------|-----------------------------0-0-|
        slat' k chertyam     ma - ne - ry  i  kont  - rol'.           Sor - 
Gtr.1E|----------------------------------|---------------------------------|
     H|----------------------------------|---------------------------------|
     G|----------------------------------|-1-------------------------------|
     D|--2-----------3-------------------|-0-----------2---------------2p0-|
     A|--0-----------5-------------------|-3-----------0-------------------|
     E|----------------------------------|---------------------------------|
        vat' vse    mas  -  ki   i  byt' prosto  so - boy.
Gtr.1E|----------------------------------|---------------------------------|
     H|----------------------------------|---------------------------------|
     G|----------------------------------|--------------------- drum fill -|
     D|----------------------------------|---------------------------------|
     A|--5---3-------5-------3---5---5---|-5---3---------------------------|
     E|----------------------------------|---------5---4-------------------|
(1:34 - 1:36)
RIFF 2 :
Gtr.1E|--2/4 measure-----|-------------------------------|-- to VERSE 2 --->  
     H|------------------|-------------------------------|------------------
     G|- drum fill ------|-------------------------------|------------------
     D|--- ends ---------|-------------------------------|------------------
     A|--------------2---|(2)--------2-------2-------2---|------------------
     E|--------------4---|(4)----0-0-4---0-0-4---0-0-4---|-5----------------
      |                  |                               |
Gtr.2E|------------------|-------------------------------|------------------
     H|--------------9----------- sound -----------------|-/10~~~~~\--------
     G|--------------7bend8----- together ---------------|------------------
     D|------------------|-------------------------------|------------------
     A|------------------|-------------------------------|------------------
     E|------------------|-------------------------------|------------------

(1:36 - 2:05) VERSE 2

(2:05 - 2:19) BRIDGE

(2:19 - 2:33) CHORUS

(2:33 - 2:50)

RIFF 3:
                         I  ne  stoyat'  za  tzeno - 
E|---2/4 measure----|-------------------------------|
H|------------------|-------------------------------|
G|-- drum fill -----|-R-----------------------------|
D|------------------|-E-----------------------------|
A|------------------|-S-----------------------------|
E|------------------|-T-------------------------0-0-|
   oy!
E|---------------------------------|---------------------------------|
H|---------------------------------|---------------------------------|
G|---------------------------------|---------------------------------|
D|-1--/2-------5-------4-----------|-(4)-----------------------------|
A|-1--/2-------3-------2-----------|-(2)-----------------------------|
E|---------------------------------|-----------------------------0-0-|


E|---------------------------------|---------------------------------|
H|---------------------------------|---------------------------------|
G|---------------------------------|---------------------------------|
D|-1--/2-------5-------7-----------|-(7)-----------------------------|
A|-1--/2-------3-------5-----------|-(5)-----------------------------|
E|---------------------------------|-----------------------------0-0-|


E|---------------------------------|---------------------------------|
H|---------------------------------|---------------------------------|
G|---------------------------------|---------------------------------|
D|-1--/2-------5-------4-----------|-(4)-----------------------------|
A|-1--/2-------3-------2-----------|-(2)-----------------------------|
E|---------------------------------|-----------------------------0-0-|


E|---------------------------------|---------------------------------|
H|---------------------------------|---------------------------------|
G|---------------------------------|---------------------------------|
D|-1--/2-------5-------7-----------|-(7)-----------------------------|
A|-1--/2-------3-------5-----------|-(5)-----------------------------|
E|---------------------------------|---------------------------------|

(2:50 - 3:47)

SOLO:

Part A:

E|--------------------------------------------------|-------------------------------------------------|
H|--------------------------------------------------|-------------------------------------------------|
G|--9-----9-----9-----9-----------11----------12----|(12)---------------------12~~~~~~~~~~~~~~--------|
D|--------------------------------------------------|-------------------------------------------------|
A|--------------------------------------------------|-------------------------------------------------|
E|--------------------------------------------------|-------------------------------------------------|


E|--------------------------------------------------|-------------------------------------------------|
H|--12----12----12----12----------15----------17----|(17)---------------------17~~~~~~~~~~~~~~----15--|
G|--------------------------------------------------|-------------------------------------------------|
D|--------------------------------------------------|-------------------------------------------------|
A|--------------------------------------------------|-------------------------------------------------|
E|--------------------------------------------------|-------------------------------------------------|


E|--15----15----15----15----------17----------19----|(19)---------------------19~~~~~~~~~~~~~~--------|
H|--------------------------------------------------|-------------------------------------------------|
G|--------------------------------------------------|-------------------------------------------------|
D|--------------------------------------------------|-------------------------------------------------|
A|--------------------------------------------------|-------------------------------------------------|
E|--------------------------------------------------|-------------------------------------------------|


E|--19p15-------------------------------------------|-------------------------------------------------|
H|--------17-20p17-15-------15p12-------------------|-------------------------------------------------|
G|--------------------16-14-------14-12----14p12----|----12-------------------------------------------|
D|--------------------------------------14-------14-|-14----14p12----14p12----------------------------|
A|--------------------------------------------------|-------------14-------14-13-12-------------------|
E|--------------------------------------------------|-------------------------------15----12~~~~~~~~~~|


E|--------------------------------------------------|-------------------------------------------------|
H|--------------------------------------------------|-------------------------------------------------|
G|--------------------------------------------------|-------------------------------------------------|
D|--------------------------------------------------|-------------------------------14~~~~~~~~~~~~~~~~|
A|----------------12---14-p-12-------------12---14--p-12------------12---14---------------------------|
E|-(12)~~~~--15-----------------------15------------|----------15-------------------------------------|


E|--------------------------------------------------|-------------------------------------------------|
H|--------------------------------------------------|-------------------------------15----------------|
G|----------------14---16-p-14~~~~~--------14---16--p-14~~~~~-------14---16---------------------------|
D|-(14)~~~~--17-----------------------17------------|----------17-------------------------------------|
A|--------------------------------------------------|-------------------------------------------------|
E|--------------------------------------------------|-------------------------------------------------|


E|--12----12----12-12-12----15-15-15-15-15----12-12-|-12----------------------------------------------|
H|--------------------------------------------------|-------15-15-15-15-15-15-15----12-12-12~~~~--12h13h|
G|--------------------------------------------------|-------------------------------------------------|
D|--------------------------------------------------|-------------------------------------------------|
A|--------------------------------------------------|-------------------------------------------------|
E|--------------------------------------------------|-------------------------------------------------|


E|-------------------------------------------------------------------|------------------------------------------------------------|
H|h15p13p12---12h13h15p13p12-----------------------------------------|---------------------------------------------------5--------|
G|---------14---------------14p12p11---11h12h14p12p11----------------|---------------------------------------------5-h7-----------|
D|----------------------------------14---------------14p12p10---10h12-h14p12p10---------------------------------------------------|
A|-----------------------------------------------------------14------|---------14p12p10--10h12h14p12p10---------------------------|
E|-------------------------------------------------------------------|-----------------14--------------14p12p10-------------------|

Part B: (play 2 times)

Gtr. E||---------------------------------|---------------------------------|
     H||---------------------------------|---------------------------------|
     G||-2-------2--4b5--4-----5p4p2p0---|-2-------2--4b5--4-----5p4p2p0---|
     D||---------------------------------|---------------------------------|
     A||---------------------------------|---------------------------------|
     E||---------------------------------|---------------------------------|
      ||                                 |                                 |
Bass G||---------------------------------|---------------------------------|
     D||---------------------------------|---------------------------------|
     A||---------------------------------|---------------------------------|
     E||-5-------------------------------|-3-------------------------------|
 
Gtr. E|----------------------------------|---------------------------------||
     H|----------------------------------|---------------------------------||
     G|--2-------2--4b5--4-----5p4p2p0---|-2-------2--4b5--4-----5p4p2p0---||
     D|----------------------------------|---------------------------------||
     A|----------------------------------|---------------------------------||
     E|----------------------------------|---------------------------------||
      |                                  |                                 ||
Bass G|----------------------------------|---------------------------------||
     D|----------------------------------|---------------------------------||
     A|----------------------------------|---------------------------------||
     E|--1-------------------------------|-0-------------------------------||

Part C: (play 2 times)

Gtr. E||---------------------------------|---------------------------------|
     H||-10-----10-12b13-12----13p12p10-----|-10-----10-12b13-12----13p12p10-----|
     G||--------------------------------12--|--------------------------------12--|
     D||---------------------------------|---------------------------------|
     A||---------------------------------|---------------------------------|
     E||---------------------------------|---------------------------------|
      ||                                 |                                 |
Bass G||---------------------------------|---------------------------------|
     D||---------------------------------|---------------------------------|
     A||---------------------------------|---------------------------------|
     E||-5-------------------------------|-3-------------------------------|
 
Gtr. E|---------------------------------|---------------------------------|| to BRIDGE ->
     H|-10-----10-12b13-12----13p12p10-----|-10-----10-12b13-12----13p12p10-----||----
     G|--------------------------------12--|--------------------------------12--||-10-
     D|---------------------------------|---------------------------------||----
     A|---------------------------------|---------------------------------||----
     E|---------------------------------|---------------------------------||----
      |                                 |                                 ||
Bass G|---------------------------------|---------------------------------||----
     D|---------------------------------|---------------------------------||----
     A|---------------------------------|---------------------------------||----
     E|-1-------------------------------|-0-------------------------------|| F -

(3:47 - 4:01) BRIDGE

(4:01 - 4:15) CHORUS

(4:15 - 4:29) CHORUS one more time, finishing with

(4:29 - 4:38) OUTRO:
                         I  ne  stoyat'  za  tzeno - 
E|---2/4 measure----|-------------------------------|
H|------------------|-------------------------------|
G|-- drum fill -----|-R-----------------------------|
D|------------------|-E-----------------------------|
A|------------------|-S-------------------------8---|
E|------------------|-T-----------------------------|
   oy!
E|---------------------------------|---------------------------------|
H|---------------------------------|---------------------------------|
G|---------------------------------|---------------------------------|
D|---------------------------------|---------------------------------|
A|-(8)-7---5------------------<5>--|(<5>)3---2-----------------------|
E|-------------8---7---5---4-------|-------------5---4---1---0-------|


E|---------------------------------|---------------------------------|
H|---------------------------------|---------------------------------|
G|---------7---------------5-------|-(5)-----------------------------|
D|---------7---------------5-------|-(5)-----7-----------------------|
A|---------5---------------3-------|-(3)-----7-----------------------|
E|---------------------------------|---------5-----------------------|
-----------------------------------------------------------------------------------------------------------------------

ADDITIONAL TABS:

LICK 1:

Gtr.2E|------------15----15------15------15--------------------------------|
     H|------------15b17-----15^-----15^---15-17p15p13-15~~~~~~~-----------|
     G|----------------------------------|---------------------------------|
     D|----------------------------------|---------------------------------|
     A|----------------------------------|---------------------------------|
     E|----------------------------------|---------------------------------|

LICK 2:

Gtr.2E|----------------------------------|---------------------------------|
     H|-----------15b17r15--15b17r15--15b17r15-|---15b17r15p13---------------------|
     G|----------------------------------|-------------14~~~~~~~-----------|
     D|----------------------------------|---------------------------------|
     A|----------------------------------|---------------------------------|
     E|----------------------------------|---------------------------------|


                   ГРЯЗЬ
         (Терентьев/Kипелов/Пушкинa)

         Подбор:Roman Alampiev (2:452/23.38)

 intro
   Am                          F                      Dm       E        Am
e|-------------------------------------------------------------------------|
h|-------------------------------------------------------------------------|
g|--------------------------------------3-4-5------10-7---7-10-9---9-10----|
d|-7---------------------------3--3-5-6-------10~--10-7-7---10-9-9---10----|
a|-7--------7-----7--7-7--7-7--3--------------8-~--8--5-----8--7-----8--7~-|
e|-5--5-7-8---8-7-5--5-5--5-5--1----------------------------------------5~-|

   C    D
e|----------|
h|----------|
g|----------| - этот рифф 2 раза
d|-5-5--7-7-|
a|-3-3--5-5-|
e|----------|

   Am
e|----------------------------------------------------------|
h|----------------------------------------------------------|
g|----------------------------------------------------------|
d|----------------------------------------------------------|
a|-7~------долго-звучит-------------------------------------|
e|-5~------потом-какая-то фишка-----------------------------|

 I куплет (привожу так,как я играю на акустике,внатуре конечно по-другому,
 там басовые партии валят и барабаны што дурные :))
 \\-значит несколько раз то же

  Am                         F
e|---|---------------------|---|----------------------------|
h|---|---------------------|---|----------------------------|
g|---|---------------------|---|----------------------------|
d|---|--------\\-----------|---|-----------\\---------------|
a|-7-|---------------------|-3-|----------------------------|
e|-5-|---------------------|-1-|----------------------------|
    За дверь я выгнан в ночь, но выйти вон и сам не прочь,

   Dm                                 Hdim
e|---|-------------------------|----------------------------|
h|---|-------------------------|----------------------------|
g|---|-------------------------|----------------------------|
d|-7-|--------\\---------------|----------------------------|
a|-5-|-------------------------|-5--7-8----7-5--------------|
e|---|-------------------------|---------------8---7---5--4-|
   Ты без меня хоть застрелись,все решат,что это твой каприз,

    E7
e|--------------------|
h|--------------------|
g|--------------------|
d|--------------------|
a|--5-----------------|
e|-----8-7-5-4--1--0--|
   Повтори его на бис!


Am
Дa, я уйду, и мне плевaть,
F
Ты знaешь, где меня искaть,
Dm
В квaртaле крaсных фонaрей
Bdim
Я смогу тебя зaбыть быстрей -
E7
Это дело двух ночей.

Припев:

   F             Ab                  Am
e|--------------------------------------------------------------------|
h|--------------------------------------------------------------------|
g|--------------------------------------------------------------------|
d|--------------------------------------------------------------------|
a|-3--3---3-3----6---6---6---6-6--6--7--0-2-0-3-0-4-0-5-0-4-0-3-2/3/2-|
e|-1--1---1-1----4---4---4---4-4--4--5--------------------------------|
     Hо хвaтит врaть и все время хитрить,

   F             Ab                 E       F       E    F7
e|--------------------------------------------------------------------|
h|--------------------------------------------------------------------|
g|--------------------------------------------------------------------|
d|--------------------------------------------------------------------|
a|-3--3-----3--3--6---6--6--6--6--6-2--2--2-3-3-3-3-2--2-3-3-3--------|
e|-1--1-----1--1--4---4--4--4--4--4-0--0--0-1-1-1-1-0--0-1-1-1--------|
    Здесь все зa деньги несложно купить.

   E Am    Dm       G    Am
e|---------------------------------------|
h|---------------------------------------|
g|---------------------------------------|
d|---------7--7-7-7----------------------|
a|-2-7-7---5--5-5-5-5-5--7--7-7----------|
e|-0-5-5------------3-3--5--5-5----------|
  Kaкa-я грязь,  кaкa-я влaсть,

   E  Am     Dm       Em        Am
e|---------------------------------------|
h|---------------------------------------|
g|---------------------------------------|
d|-----------7--7---7-7---9---9----------|
a|-2--7----7-5--5---5-5---7---7-7--7-7---|
e|-0--5----5--------------------5--5-5---|
   И кaк при-ятно в эту грязь упaсть,

   E  Am        Dm        G      Am
e|---------------------------------------|
h|---------------------------------------|
g|---------------------------------------|
d|--------------7---7-7-7----------------|
a|-2--7------7--5---5-5-5-5--5---7--7-7--|
e|-0--5------5------------3--3---5--5-5--|
  Послaть к чертям мaнеры и контроль,

   Am Dm                 F                    E        F      E    F7
e|-----------------------------------------------------------------------|
h|-----------------------------------------------------------------------|
g|-----------------------------------------------------------------------|
d|----7-----7--7--7--7-9-10-10-10----10-10-10----------------------------|
a|-7--5-----5--5--5--5-7-8--8--8-----8--8--8--2--2--2-3-3-3-3-2--2-3-3-3-|
e|-5------------------------------------------0--0--0-1-1-1-1-0--0-1-1-1-|
  Сорвaть все мaски         и быть просто со-бой...


                     II
Вокруг - живой товaр,
В сердцaх - мороз, в глaзaх - пожaр,
Я выбрaл ту, что выше всех,
Мой мaневр имел большой успех
В доме слaдостных утех.
Онa молчит, онa не пьет,
Hе теребит, не пристaет
Онa послушнa и умнa,
Все умеет, что уметь должнa,
Счет оплaчен мой сполнa.
             Припев

 






                       


Copyright © Музыкальный Портал на Куличках 1999-2007      music@kulichki.com


    Stolica.ru    
Реклама в Интернет