Stolica.ru Реклама на Куличках     

Аккорды песен:
A B C D E F G H I J K L M N O P Q R S T U V W X Y Z
АБВГДЕЖЗИКЛМНОПРСТУФХЦЧШЩЭЮЯ





Тексты песен :     A B C D E F G H I J K L M N O P Q R S T U V W X Y Z #

ПОЛНЫЙ СПИСОК ПЕСЕН ГРУППЫ




-->




АРИЯ   

Что вы сделали с нашей мечтой ?
-------------------------------
tabbed by Vladimir Gelfand ("Little Prince")


INTRO:

Tempo: slow (85 bpm)

(0:01 - 0:46)

RIFF 1: (Play 2 times) (acoustic guitar + bass accents the low notes)
Gtr.E||---------3---2-------------------|---------------------------------|
 +  H||-----0---------------3---5-------|-----0---2---3-------5-----------|
bassG||---------------------------------|-------------------------2-------|
    D||---------------------------------|---------------------------------|
    A||---------------------------------|---------------------------------|
    E||-0-------------------------------|-0-------------------------------|


Gtr.1E|---------3---2-----------5-------|---------------------------------|
  +  H|-----0---------------------------|-3---h---5---5-------------------|
bass G|---------------------------------|---------------------------------|
     D|---------------------------------|-0-------------------------------|
     A|---------------------------------|---------------------------------|
     E|-0-------------------------------|---------------------------------|


Gtr.1E|---------3---2-------------------|---------------------------------|
  +  H|-----0---------------3---5-------|-----0---2---3-------5-----------|
bass G|---------------------------------|-------------------------2-------|
     D|---------------------------------|---------------------------------|
     A|---------------------------------|---------------------------------|
     E|-0-------------------------------|-0-------------------------------|


Gtr.1E|---------3---2-----------5-------|-7-------------------------------||
  +  H|-----0---------------------------|---------------------------------||
bass G|---------------------------------|---------------------------------||
     D|---------------------------------|---------------------------------||
     A|---------------------------------|---------------------------------||
     E|-0-------------------------------|-7-------------------------------||

(0:46 - 1:05)

Tempo: faster (100 bpm)

RIFF 2: (Play 2 times) (acoustic guitar)
        Em                               Fm#                     
Gtr.1E||-0------------------------------|-2-------------------------------|
     H||-0------------------------------|-2-------------------------------|
     G||-0------------------------------|-2-------------------------------|
     D||-2------------------------------|-4-------------------------------|
     A||-2------------------------------|-4-------------------------------|
     E||-0------------------------------|-2-------------------------------|

       Am                                Em                     
Gtr.1E|-5-------------------------------|-0------------------------------||
     H|-5-------------------------------|-0------------------------------||
     G|-5-------------------------------|-0------------------------------||
     D|-7-------------------------------|-2------------------------------||
     A|-7-------------------------------|-2------------------------------||
     E|-5-------------------------------|-0------------------------------||

Bass also plays something during the progression.

Tempo: faster (120 bpm) + gradually increases

(1:05 - 1:21)

RIFF 3: (distorted guitar)

Gtr.2E|----------------------------------|----------------------------------|
     H|--12\-----------------------------|-12\------------------------------|
     G|-----------12---9-------9--12--9--|-----------12---9-------9--12--9--|
     D|----------------------------------|----------------------------------|
     A|----------------------------------|----------------------------------|
     E|----------------------------------|----------------------------------|


Gtr.2E|----------------------------------|----------------------------------|
     H|--13\------10---------------------|-12---10--------------------------|
     G|----------------9-------9--12--9--|-----------12---9-------9--12--9--|
     D|----------------------------------|----------------------------------|
     A|----------------------------------|----------------------------------|
     E|----------------------------------|----------------------------------|


Gtr.2E|------ accelerando  --------------|----------------------------------|
     H|--12\-----------------------------|-12\------------------------------|
     G|-----------12---9-------9--12--9--|-----------12---9-------9--12--9--|
     D|----------------------------------|----------------------------------|
     A|----------------------------------|----------------------------------|
     E|----------------------------------|----------------------------------|


Gtr.2E|----------------------------------|----------------------------------|
     H|--13\-------10--------------------|-12---10--------------------------|
     G|----------------9-------9--12--9--|-----------12---9-----------------|
     D|----------------------------------|----------------------------------|
     A|----------------------------------|----------------------------------|
     E|----------------------------------|----------------------------------|

Tempo: moderately fast (139 bpm)

(1:21 - 1:48)

VERSE 1:

VoiceE|--------------------------------------------------------------------------------------------------------|
     H|--------------------------------------------------------------------------------------------------------|
     G|--------------------------------------------------------------------------------------------------------|
     D|--5---5---5---5-----4-------7------7--7-7-----5---4---7-7------7--7-------5-4---5-----------------------|
     A|------------------------7-------------------------------------------------------------------------------|
     E| Ty slishkom dol - go bluzhdal  v temnote,    i  ty  dumal, chto noch' -  eto  den'.     ---------------|
      |                          |                         |                         |                         |
Gtr.2E|--------------------------|-------------------------|-------------------------|-------------------------|
     H|--------------------------|-------------------------|-------------------------|-------------------------|
     G|--0-----------0-----------|-2-----------2-----------|-2-----------2-----------|-0-----------D--D--D--D--|
     D|--2-----------2-----------|-4-----------4-----------|-2-----------2-----------|-2-----------R--R--R--R--|
     A|--2-----------2-----------|-4-----------4-----------|-0-----------0-----------|-2-----------U--U--U--U--|
     E|--0-----------0-----------|-2-----------2-----------|-------------------------|-0-----------M--M--M--M--|
 
VoiceE|--------------------------------------------------------------------------------------------------------|
     H|--------------------------------------------------------------------------------------------------------|
     G|--------------------------------------------------------------------------------------------------------|
     D|--5----5-5----5-----4------7----7--7----7-------5---4-7----7---7--7-----5----4--7-----------------------|
     A|-------------------------7------------------------------------------------------------------------------|
     E| Ty   videl  sot - ni   poru - gannyh  tel,    no predat'  ih zemle    by - lo len'.     ---------------|
      |                          |                         |                         |                         |
Gtr.2E|--------------------------|-------------------------|-------------------------|-------------------------|
     H|--------------------------|-------------------------|-------------------------|-------------------------|
     G|--0-----------0-----------|-2-----------2-----------|-2-----------2-----------|-2-----------------------|
     D|--2-----------2-----------|-4-----------4-----------|-2-----------2-----------|-2-----------------------|
     A|--2-----------2-----------|-4-----------4-----------|-0-----------0-----------|-0-----------------------|
     E|--0-----------0-----------|-2-----------2-----------|-------------------------|-------------------------|
 
VoiceE|--------------------------------------------------------------------------------------------------------|
     H|--------------------------------------------------------------------------------------------------------|
     G|--------------------------------------------------------------------------------------------------------|
     D|--9----9---9-7----5-----5---9-----9---9-9-------7---5-7-----7--7---7----5-----4-5-----------------------|
     A|--------------------------------------------------------------------------------------------------------|
     E| Ty   ne preda - tel', ty pros - to glupetz,    i  takih   milli - o - ny   krugom.   ------------------|
      |                          |                         |                         |                         |
Gtr.2E|--------------------------|-------------------------|-------------------------|-------------------------|
     H|--------------------------|-------------------------|-------------------------|-------------------------|
     G|--0-----------0-----------|-2-----------2-----------|-2-----------2-----------|-0-----------D--D--D--D--|
     D|--2-----------2-----------|-4-----------4-----------|-2-----------2-----------|-2-----------R--R--R--R--|
     A|--2-----------2-----------|-4-----------4-----------|-0-----------0-----------|-2-----------U--U--U--U--|
     E|--0-----------0-----------|-2-----------2-----------|-------------------------|-0-----------M--M--M--M--|
 
VoiceE|--------------------------------------------------------------------------------------------------------|
     H|--------------------------------------------------------------------------------------------------------|
     G|--------------------------------------------------------------------------------------------------------|
     D|--5--5-----5--5------4------7-----7---7-7------5-4----7--7-----7--7----5-----4-7------------------------|
     A|-------------------------7------------------------------------------------------------------------------|
     E| Bednyy  Hristos   svoy sorval   by  venetz,   uga - day on chto bu - det   potoooooooooooooom         -|
      |                          |                         |                         |                         |
Gtr.2E|--------------------------|-------------------------|-------------------------|-------------------------|
     H|--------------------------|-------------------------|-------------------------|-------------2-----------|
     G|--0-----------0-----------|-2-----------2-----------|-2-----------2-----------|-2-----------2-----------|
     D|--2-----------2-----------|-4-----------4-----------|-2-----------2-----------|-2-----------2-----------|
     A|--2-----------2-----------|-4-----------4-----------|-0-----------0-----------|-0-----------0-----------|
     E|--0-----------0-----------|-2-----------2-----------|-------------------------|-------------------------|
(1:48 - 2:02)
BRIDGE: (chords are implied by bass)
VoiceE|---------------------------------------------------------------------------------------------------|
     H|---------------------------------------------------------------------------------------------------|
     G|---------------------------------------------------------------------------------------------------|
     D|----7--------------------------------4-------------------------------------------------------------|
     A|---------------------------------------------------5-----------------------------------------------|
     E|-  Nooooooo                          ot      -    vet':            --------------------------------|
      |                                                 |                                                 |
Gtr.2E|-----T-----T-----T-----T-----T-----T-----T-----T-|-----T-----T-----T-----T-----T-----T-----T-----T-|
     H|-7h10-14p7h10-14p7h10-14p7h10-14p7h10-14p7h10-14p7h10-14p7h10-14p|p7h10-15p7h10-15p7h10-15p7h10-15p7h10-15p7h10-15p7h10-15p7h10-15p|
     G|-------------------------------------------------|-------------------------------------------------|
     D|-------------------------------------------------|-------------------------------------------------|
     A|-------------------------------------------------|-------------------------------------------------|
     E|-- Fm# ------------------------------------------|- D ---------------------------------------------|
 
VoiceE|---------------------------------------------------------------------------------------------------|
     H|---------------------------------------------------------------------------------------------------|
     G|---------------------------------------------------------------------------------------------------|
     D|----7-----7--------7-----7--------6--------7-------4-----------------------------------------------|
     A|---------------------------------------------------------------------------------------------------|
     E| chto    vam      me - sha   -   lo      proz  -  ret'?    ----------------------------------------|
      |                                                 |                                                 |
Gtr.2E|-----T-----T-----T-----T-----T-----T-----T-----T-|-----T-----T-----T-----T-----T-----T-----T-------|
     H|-7h10-14p7h10-14p7h10-14p7h10-14p7h10-14p7h10-14p7h10-14p7h10-14p|p7h10-15p7h10-15p7h10-15p7h10-15p7h10-15p7h10-15p7h10-15p7h10---|
     G|-------------------------------------------------|-------------------------------------------------|
     D|-------------------------------------------------|-------------------------------------------------|
     A|-------------------------------------------------|-------------------------------------------------|
     E|-- Fm# ------------------------------------------|- D ---------------------------------------------|
 
VoiceE|---------------------------------------------------------------------------------------------------|
     H|---------------------------------------------------------------------------------------------------|
     G|---------------------------------------------------------------------------------------------------|
     D|----2-----2--------2-----2--------4---------5------4-----------------------------------------------|
     A|---------------------------------------------------------------------------------------------------|
     E| chto   zhe      slu - chi   -   los'   s  mech - toy          ------------------------------------|
      |                                                 |                                                 |
Gtr.2E|-------------------------------------------------|-------------------------------------------------|
     H|-------------------------------------------------|-------------------------------------------------|
     G|-------------------------------------------------|-4--------2--------0-----------------------------|
     D|-2-----------------------------------------2-----|-------------------------4--------2--------0-----|
     A|----------3--------2-----0--------3--------------|-------------------------------------------------|
     E|-------------------------------------------------|-------------------------------------------------|
 
VoiceE|---------------------------------------------------------------------------------------------------|
     H|---------------------------------------------------------------------------------------------------|
     G|---------------------------------------------------------------------------------------------------|
     D|---2------2--------2-----2--------4--------5-------4-----------------------------------------------|
     A|---------------------------------------------------------------------------------------------------|
     E| sde  -  lat'   dlya   vseh      ray      zem  -  noy?  -------------------------------------------|
      |                                                 |                                                 |
Gtr.2E|-------------------------------------------------|-------------------------------------------------|
     H|-------------------------------------------------|-------------------------------------------------|
     G|-------------------------------------------------|-4--------2--------0-----------------------------|
     D|-2-----------------------------------------2-----|-------------------------4-----------------------|
     A|----------3--------2-----0--------3--------------|-------------------------------------------------|
     E|-------------------------------------------------|-------------------------------------------------|

(2:02 - 2:30) VERSE 2

(2:30 - 2:44) BRIDGE

(2:44 - 3:11)

CHORUS: Oglya -

VoiceE|--------------------------------------------------------------------------------------------------------|
     H|--------------------------------------------------------------------------------------------------------|
     G|--------------------------------------------------------------------------------------------------------|
     D|--9------7-5--------9----9--9-----7-5----------9--9---9--9-----9--9-----7----5-7------------------9-9---|
     A|--------------------------------------------------------------------------------------------------------|
     E| nis'   nazad:     tam  zastyl   zakat,      cherno-krasnoy   zastyl   po - losoy.              Vpere - |
      |                          |                         |                         |                         |
Gtr.2E|--------------------------|-------------------------|-------------------------|-------------------------|
     H|--------------------------|-------------------------|-------------------------|-------------------------|
     G|--------------------------|-------------------------|-------------------------|----D-----D-----D-----D--|
     D|--2-----------5----4----2--|-2-----------------------|-------------------------|-7--R-----R-----R-----R--|
     A|--2--------2--------------|-3-----------------------|-5-----------------------|-5--U-----U-----U-----U--|
     E|--0--------.--------------|-------------------------|-3-----------------------|----M-----M-----M-----M--|
      |                          |                         |                         |                         |
Bass G|--------------------------|-------------------------|-------------------------|-------------------------|
     D|--2-----------2-----------|-------------------------|-------------------------|-------------------------|
     A|--------------------------|-3-----------3-----------|-------------------------|-5--5-----3-----2-----0--|
     E|--------------------------|-------------------------|-3-----------3-----------|-------0-----0-----0-----|
 
        di     tuman,      poza - di    obman.     Chto vy sde - lali s va - shey mechtoy?              Oglya -
Gtr.2E|--------------------------|-------------------------|-------------------------|-------------------------|
     H|--------------------------|-------------------------|-------------------------|-------------------------|
     G|--------------------------|-------------------------|-------------------------|-------------------------|
     D|--2-----------5----4----2--|-2-----------------------|-------------------------|-7-----------------------|
     A|--2--------2--------------|-3-----------------------|-5-----------------------|-5-----------------------|
     E|--0--------.--------------|-------------------------|-3-----------------------|-------------------------|
      |                          |                         |                         |                         |
Bass G|--------------------------|-------------------------|-------------------------|-------------------------|
     D|--2-----------2-----------|-------------------------|-------------------------|-------------------------|
     A|--------------------------|-3-----------3-----------|-------------------------|-------2-----3-----5-----|
     E|--------------------------|-------------------------|-3-----------3-----------|-5-----------------------|
 
        nis'   nazad:     tam  zastyl    zakat,     cherno-krasnoy   zastyl   po - losoy.              Vpere -
Gtr.2E|--------------------------|-------------------------|-------------------------|-------------------------|
     H|--------------------------|-------------------------|-------------------------|-------------------------|
     G|--------------------------|-------------------------|-------------------------|----D-----D-----D-----D--|
     D|--2-----------5----4----2--|-2-----------------------|-------------------------|-7--R-----R-----R-----R--|
     A|--2--------2--------------|-3-----------------------|-5-----------------------|-5--U-----U-----U-----U--|
     E|--0--------.--------------|-------------------------|-3-----------------------|----M-----M-----M-----M--|
      |                          |                         |                         |                         |
Gtr.1E|--0-----------0-----------|-0-----------0-----------|-3-----------3-----------|-2-----------2-----------|
cleanH|--0-----------0-----------|-1-----------1-----------|-0-----------0-----------|-3-----------3-----------|
     G|--0-----------0-----------|-0-----------0-----------|-0-----------0-----------|-2-----------2-----------|
     D|--2-----------2-----------|-2-----------2-----------|-0-----------0-----------|-0-----------0-----------|
     A|--2-----------2-----------|-3-----------3-----------|-2-----------2-----------|-------------------------|
     E|--0-----------0-----------|-------------------------|-3-----------3-----------|-------------------------|
      |                          |                         |                         |                         |
Bass G|--------------------------|-------------------------|-------------------------|-------------------------|
     D|--2-----------2-----------|-------------------------|-------------------------|-------------------------|
     A|--------------------------|-3-----------3-----------|-------------------------|-5--5-----3-----2-----0--|
     E|--------------------------|-------------------------|-3-----------3-----------|-------0-----0-----0-----|
 
        di     tuman,       poza - di    obman.    Chto vy sde - lali s va - shey mechtoy? 
Gtr.2E|--------------------------|-------------------------|-------------------------|-------------------------|
     H|--------------------------|-------------------------|-------------------------|-------------------------|
     G|--------------------------|-------------------------|-------------------------|-------------------------|
     D|--2-----------5----4----2--|-2-----------------------|-------------------------|-7-----------------------|
     A|--2--------2--------------|-3-----------------------|-5-----------------------|-5-----------------------|
     E|--0--------.--------------|-------------------------|-3-----------------------|-------------------------|
      |                          |                         |                         |                         |
Gtr.1E|--0-----------0-----------|-0-----------0-----------|-3-----------3-----------|-2-----------2-----------|
cleanH|--0-----------0-----------|-1-----------1-----------|-0-----------0-----------|-3-----------3-----------|
     G|--0-----------0-----------|-0-----------0-----------|-0-----------0-----------|-2-----------2-----------|
     D|--2-----------2-----------|-2-----------2-----------|-0-----------0-----------|-0-----------0-----------|
     A|--2-----------2-----------|-3-----------3-----------|-2-----------2-----------|-------------------------|
     E|--0-----------0-----------|-------------------------|-3-----------3-----------|-------------------------|
      |                          |                         |                         |                         |
Bass G|--------------------------|-------------------------|-------------------------|-------------------------|
     D|--2-----------2-----------|-------------------------|-------------------------|-------------------------|
     A|--------------------------|-3-----------3-----------|-------------------------|-------2-----3-----5-----|
     E|--------------------------|-------------------------|-3-----------3-----------|-5-----------------------|

(3:11 - 3:25)

RIFF 4:

Gtr.2E|--F#5-----------------------------|-G5------------------------------|
     H|----------------------------------|---------------------------------|
     G|----------------------------------|---------------------------------|
     D|--4-------------------------------|-5-----------------------7---5---|
     A|--------------------------7p5p4h5-|---------------------------------|
     E|----------------------------------|---------------------------------|


Gtr.2E|--F#5-----------------------------|-G5------------------------------|
     H|----------------------------------|---------------------------------|
     G|----------------------------------|---------------------------------|
     D|--4-------------------------------|-5-----------------------7---5---|
     A|--------------------------7p5p4h5-|---------------------------------|
     E|----------------------------------|---------------------------------|


Gtr.2E|--H5------------------------------|-C5------------------------------|
     H|----------------------------------|---------------------------------|
     G|--4-------------------------------|-5-----------------------7---5---|
     D|--------------------------7p5p4h5-|---------------------------------|
     A|----------------------------------|---------------------------------|
     E|----------------------------------|---------------------------------|

                                          1,2.------------------------------->
Gtr.2E|--H5------------------------------|-C5------------------------------|
     H|----------------------------------|---------------------------------|
     G|--4-------------------------------|-5-----------------------7---5---|
     D|--------------------------7p5p4h5-|---------------------------------|
     A|----------------------------------|---------------------------------|
     E|----------------------------------|---------------------------------|

(3:25 - 3:39)

SOLO A: (Mavrin's lead)

Lead E|--------10h12h13p12h13p12---------10h12h13p12--------|-12h13p12-12p10\8------------------------------------|
     H|-10-12h13------------------10-12h13------------10-13-|--------------12p10p8------------------------------|
     G|-------------------------------------------------|--------------------10p9p7-------------------------|
     D|-------------------------------------------------|-------------------------10-7--------------------|
     A|-------------------------------------------------|-------------------------------------------------|
     E|-------------------------------------------------|-------------------------------------------------|
      |                                                 |                                                 |
Bass G|-------------------------------------------------|-------------------------------------------------|
     D|-------------------------------------------------|-------------------------------------------------|
     A|-0-----------------------2-----------------------|-3-----------------------3--------3--------3-----|
     E|-------------------------------------------------|-------------------------------5--------5--------|
 
Lead E|-3p2p1p0h1h2h3p2p1p0h1h2h3p2p1p0h1h2h3p2p1p0---slide up------20b22-------20b22~~~~~~~~~~~~~~~~~~---|
     H|-------------------------------------------------|-------------------------------------------------|
     G|-------------------------------------------------|-------------------------------------------------|
     D|-------------------------------------------------|-------------------------------------------------|
     A|-------------------------------------------------|-------------------------------------------------|
     E|-------------------------------------------------|-------------------------------------------------|
      |                                                 |                                                 |
Bass G|-------------------------------------------------|-------------------------------------------------|
     D|-------------------------------------------------|-------------------------------------------------|
     A|-0-----------------------2-----------------------|-3-----------------------3--------3--------3-----|
     E|-------------------------------------------------|-------------------------------5--------5--------|
 
Lead E|-17p15p13-----------------------------------------------------|-------------------------------------------------|
     H|---------17p15p13-17p15p13------------------------------------|----------------/18b20-18b20release18------------|
     G|--------------------------14p12p10-14p12p10---------14--------|-------------------------------------------------|
     D|-------------------------------------------14p12p10-14--------|-------------------------------------------------|
     A|-------------------------------------------------|-------------------------------------------------|
     E|-------------------------------------------------|-------------------------------------------------|
      |                                                 |                                                 |
Bass G|-------------------------------------------------|-------------------------------------------------|
     D|-------------------------------------------------|-------------------------------------------------|
     A|-0-----------------------2-----------------------|-3-----------------------3--------3--------3-----|
     E|-------------------------------------------------|-------------------------------5--------5--------|
 
Lead E|-------------------------------------------------|-17----20-------------20b22~~~~~~~~~~~~~~~~~~~~--|
     H|-18p17-----18p17-----18p17-----18p17-----18p17-----18p17-----18p17-----17--|-------------------------------------------------|
     G|------19p17-----19p17-----19p17-----19p17-----19p17-----19p17------19------|-------------------------------------------------|
     D|-------------------------------------------------|-------------------------------------------------|
     A|-------------------------------------------------|-------------------------------------------------|
     E|-------------------------------------------------|-------------------------------------------------|
      |                                                 |                                                 |
Bass G|-------------------------------------------------|-------------------------------------------------|
     D|-------------------------------------------------|-------------------------------------------------|
     A|-0-----------------------2-----------------------|-3-----------------------3--------3--------3-----|
     E|-------------------------------------------------|-------------------------------5--------5--------|

(3:39 - 3:52) Repeat RIFF 4.

(3:53 - 4:20)

SOLO B: (Holstinin's lead)

Lead E|-------------------------------------------------|-------------------------------------------------|
     H|-0-h8-h12--0-h8-h12--0-h8-h12--0-h8-h12--0-h8-h12p8p0-|-0-h7-h10--0-h7-h10--0-h7-h10--0-h7-h10--0-h7-h10p7p0-|
     G|-------------------------------------------------|-------------------------------------------------|
     D|-------------------------------------------------|-------------------------------------------------|
     A|-------------------------------------------------|-------------------------------------------------|
     E|-------------------------------------------------|-------------------------------------------------|
      |                                                 |                                                 |
Gtr.2E|-------------------------------------------------|-------------------------------------------------|
     H|-------------------------------------------------|-------------------------------------------------|
     G|-0-----------------------0-----------------------|-2-----------------------2-----------------------|
     D|-2-----------------------2-----------------------|-4-----------------------4-----------------------|
     A|-2-----------------------2-----------------------|-4-----------------------4-----------------------|
     E|-0-----------------------0-----------------------|-2-----------------------2-----------------------|
 
Lead E|-------------------------------------------------|-------------------------------------------------|
     H|-0h10h13--0h10h13--0h10h13--0h10h13--0h10h13p10p0-|-12p0--10p0---8p0---7p0---8p0--10p0--8p0---7p0---|
     G|-------------------------------------------------|-------------------------------------------------|
     D|-------------------------------------------------|-------------------------------------------------|
     A|-------------------------------------------------|-------------------------------------------------|
     E|-------------------------------------------------|-------------------------------------------------|
      |                                                 |                                                 |
Gtr.2E|-------------------------------------------------|-------------------------------------------------|
     H|-------------------------------------------------|-------------------------------------------------|
     G|-2-----------------------2-----------------------|-0-----------------------------------------------|
     D|-2-----------------------2-----------------------|-2-----------------------------------------------|
     A|-0-----------------------0-----------------------|-2-----------------------------------------------|
     E|-------------------------------------------------|-0-----------------------------------------------|
 
Lead E|-------------------------------------------------|-------------------12/sl/15----------------------|
     H|-------------------------------------------------|-/14--\\\----------------------------------------|
     G|--9----------------9~~~~~~~~~~~~~~~--------------|-/11--\\\----------------------------------------|
     D|--------------------- wide vibrato --------------|----- sl.down -----------------------------------|
     A|-------------------------------------------------|-------------------------------------------------|
     E|-------------------------------------------------|-------------------------------------------------|
      |                                                 |                                                 |
Gtr.2E|-------------------------------------------------|-------------------------------------------------|
     H|-------------------------------------------------|-------------------------------------------------|
     G|-0-----------------------0-----------------------|-2-----------------------2-----------------------|
     D|-2-----------------------2-----------------------|-4-----------------------4-----------------------|
     A|-2-----------------------2-----------------------|-4-----------------------4-----------------------|
     E|-0-----------------------0-----------------------|-2-----------------------2-----------------------|
 
Lead E|-------------------------------------------------|-------------------------------------------------|
     H|-------------------------------------10----12----|-------------------------------------------------|
     G|--------------9----12----11----12----------------|-9-----------------------------------------------|
     D|--12----10---------------------------------------|-------------------------------------------------|
     A|-------------------------------------------------|-------------------------------------------------|
     E|-------------------------------------------------|-------------------------------------------------|
      |                                                 |                                                 |
Gtr.2E|-------------------------------------------------|-------------------------------------------------|
     H|-------------------------------------------------|-------------------------------------------------|
     G|-2-----------------------2-----------------------|-0-----------------------------------------------|
     D|-2-----------------------2-----------------------|-2-----------------------------------------------|
     A|-0-----------------------0-----------------------|-2-----------------------------------------------|
     E|-------------------------------------------------|-0-----------------------------------------------|
 
Lead E|-------------------------------------------------|-------------------------------------------12-12-|
     H|-------------------------------------------------|-------------------------------------12-12-------|
     G|-------------------------------------------------|-------------9-h11-h12-12-9-h11-h12-12-------------|
     D|-------------------------------------------9--9--|--------9--9-------------------------------------|
     A|------10--10-------7--7--------7--9--10--10-------|-10--10------------------------------------------|
     E|-7--7--------7--7--------7--7--------------------|-------------------------------------------------|
      | .  .  .  .  .  .  .  .  .  .  .  .  .  .  .  .  |  .  .  .  .                                     |
Gtr.2E|-------------------------------------------------|-------------------------------------------------|
     H|-------------------------------------------------|-------------------------------------------------|
     G|-0-----------------------0-----------------------|-2-----------------------2-----------------------|
     D|-2-----------------------2-----------------------|-4-----------------------4-----------------------|
     A|-2-----------------------2-----------------------|-4-----------------------4-----------------------|
     E|-0-----------------------0-----------------------|-2-----------------------2-----------------------|
 
Lead E|-12----------------------------------------------|-12-12-------------------------------------------|
     H|-------12-12-13-13-10-10-12-12--8--8--10-10--7---|-------12-12-13-13-10-10-12-12--8--8-10p8p7-8p7--|
     G|-----------------------------------------------7-|------------------------------------------------7|
     D|-------------------------------------------------|-------------------------------------------------|
     A|-------------------------------------------------|-------------------------------------------------|
     E|-------------------------------------------------|-------------------------------------------------|
      |                                                 |                                                 |
Gtr.2E|-------------------------------------------------|-------------------------------------------------|
     H|-------------------------------------------------|-------------------------------------------------|
     G|-2-----------------------2-----------------------|-0-----------------------------------------------|
     D|-2-----------------------2-----------------------|-2-----------------------------------------------|
     A|-0-----------------------0-----------------------|-2-----------------------------------------------|
     E|-------------------------------------------------|-0-----------------------------------------------|
 
Lead E|-------------------------------------------------|-------------------------------------------------|
     H|-5-----8p5p0-8p5p0-8p5p0-8p5p0-8p5p0-8p5p0--8p5--|-7----10p7p0-10p7p0-10p7p0-10p7p0-10p7p0-10p7p0-10p7-|
     G|-------------------------------------------------|-------------------------------------------------|
     D|-------------------------------------------------|-------------------------------------------------|
     A|-------------------------------------------------|-------------------------------------------------|
     E|-------------------------------------------------|-------------------------------------------------|
      |                                                 |                                                 |
Gtr.2E|-------------------------------------------------|-------------------------------------------------|
     H|-------------------------------------------------|-------------------------------------------------|
     G|-0-----------------------0-----------------------|-2-----------------------2-----------------------|
     D|-2-----------------------2-----------------------|-4-----------------------4-----------------------|
     A|-2-----------------------2-----------------------|-4-----------------------4-----------------------|
     E|-0-----------------------0-----------------------|-2-----------------------2-----------------------|
 
Lead E|-------------------------12----10----------------|-15----14----------------17----15----------14----|
     H|-13----12----------10----------------------13----|-------------------17----------------------------|
     G|-------------------------------------------------|-------------------------------------------------|
     D|-------------------------------------------------|-------------------------------------------------|
     A|-------------------------------------------------|-------------------------------------------------|
     E|-------------------------------------------------|-------------------------------------------------|
      |                                                 |                                                 |
Gtr.2E|-------------------------------------------------|-------------------------------------------------|
     H|-------------------------------------------------|-------------------------------------------------|
     G|-2-----------------------4-----------------------|-5-----------------------7-----------------------|
     D|-2-----------------------4-----------------------|-5-----------------------7-----------------------|
     A|-0-----------------------2-----------------------|-3-----------------------5-----------------------|
     E|-------------------------------------------------|-------------------------------------------------|

(4:20 - 4:34) BRIDGE

(4:34 - 5:01) CHORUS

(5:02 - 5:16) Repeat RIFF 4,

with alternative ending:

        3.------------------------------------------------------------>
Gtr.2E|--C5------------------------------|-E5---------------------------|
     H|----------------------------------|------------------------------|
     G|--5-------------------------------|------------------------------|
     D|--------------------------7p5p4h5-|------------------------------|
     A|----------------------------------|-7----------------------------|
     E|----------------------------------|------------------------------|


                ЧТО ВЫ СДЕЛАЛИ С ВАШЕЙ МЕЧТОЙ?
                 (Дубинин/Холстинин/Пушkина)
                ------------------------------

 Подбор: Alexey Shamaev, 2:5095/28.27

 1||--------------------|--------------------|--------------------------|
 2||--------8--7--3--5--|--------2--3--5-----|--------8--7--10--3h5--5--|
 3||--------------------|-----------------2--|--------------------------|
 4||-----9--------------|-----9--------------|-----9--------------------|
 5||--7-----------------|--7-----------------|--7-----------------------|
 6||--------------------|--------------------|--------------------------|

 1||--------------------|--------------------|------------------7~~~--|
 2||--------8--7--3--5--|--------2--3--5-----|--------8--7--10--------|
 3||--------------------|-----------------2--|------------------------|
 4||-----9--------------|-----9--------------|-----9------------------|
 5||--7-----------------|--7-----------------|--7---------------------|
 6||--------------------|--------------------|------------------------|

 1||--0-----------------|--2-----------------|--0------------------0--|
 2||--0-----------------|--2-----------------|--1------------------0--|
 3||--0-----------------|--2-----------------|--2------------------0--|
 4||--2-----------------|--4-----------------|--2------------------2--|
 5||--2-----------------|--4-----------------|--0------------------2--|
 6||--0-----------------|--2-----------------|--0------------------0--|

 1||--7--5------------7--5------------7--5---------7h5------------
 2||--------5--5-8-5--------5--5-8-5--------5-8-5------5--5-8-5---
 3||--------------------------------------------------------------
 4||--------------------------------------------------------------
 5||--------------------------------------------------------------
 6||--------------------------------------------------------------

 1||--7--5------------7--5------------7--5---------7h5-5-5~~--
 2||--------5--5-8-5--------5--5-8-5--------5-8-5-------------
 3||----------------------------------------------------------
 4||----------------------------------------------------------
 5||----------------------------------------------------------
 6||----------------------------------------------------------

 Em                    Am
Ты слишkом долго блуждал в темноте
                            Em
И ты думал, что ночь - это день.
                  Am
Ты видел сотни поруганных тел,
                          Am
Hо предать их земле было лень.
 Em
Ты не предатель, ты просто глупец
     Am              Em
И таkих миллионы kругом.
                        Am
Бедный Христос свой сорвал бы венец,
                        Am
Угадай он, что будет потом...
 F#m   D
...ответь,
 F#m                 D
Что вам мешало прозреть?
  C                    D
Что же случилось с мечтой -
  C                      D
Сделать для всех рай земной?


Сбросило ветром повязkу с лица
И в глаза свет ударил бичом.
Оkазалось, маньяk заменял вам отца,
А народ был послушным сkотом.
Все изменилось в прозревших глазах,
Кто был kрысой - стал тигром и львом.
Ты не предатель, ты жил в дураkах
И таkих миллионы kругом...
...ответь
Что вам мешало прозреть?
Что же случилось с мечтой -
Сделать для всех рай земной?


     Em
Оглянись назад,
        C
Там застыл заkат,
        G                 D
Черно-kрасной застыл полосой.
     Em
Впереди - туман,
     C
Позади - обман,
         G                 D
Что вы сделали с вашей мечтой?

 






                       


Copyright © Музыкальный Портал на Куличках 1999-2007      music@kulichki.com


    Stolica.ru    
Реклама в Интернет