Stolica.ru Реклама на Куличках     

Аккорды песен:
A B C D E F G H I J K L M N O P Q R S T U V W X Y Z
АБВГДЕЖЗИКЛМНОПРСТУФХЦЧШЩЭЮЯ





Тексты песен :     A B C D E F G H I J K L M N O P Q R S T U V W X Y Z #

ПОЛНЫЙ СПИСОК ПЕСЕН ГРУППЫ




-->




АРИЯ   

          РАБСТВО ИЛЛЮЗИЙ
     (Дубинин/Холстинин/Пушкина)
     ----------------------------
tabbed by Vladimir Gelfand ("Little Prince")


Tempo: slow (57 bpm)

INTRO:

(0:02 - 0:35)

RIFF 1 (play 4 times): (chords are implied by bass which plays only on 3rd & 4th repeats)

Gtr.1E||-E5------------------------------------------------------(D5)----|
     H||-----------------------------------------------------------------|
     G||-----------------2-----------------------------------------------|
     D||-2---2---5---2-------5---4---5-------4---2---4-------2-----------|
     A||---------------------------------------------------------5-------|
     E||-----------------------------------------------------------------|


Gtr.1E|--C5--------------------------------------------------------------||
     H|------------------------------------------------------------------||
     G|------------------------------------------------------------------||
     D|----------2-------4---2------/5-------4---2--/7-------5---4-------||
     A|--3---3-------3-----------3---------------------------------------||
     E|------------------------------------------------------------------||

Tempo: faster (93 bpm)

(0:38 - 0:43)

Interlude to Verse:
                                                                                     V kra -
BassG|------------------------------------------|------------------------------------------|
    D|------------------------------------------|------------------------------------------|
    A|------------------------------------------|------------------------------------------|
    E|--5----5----5----5----5----5----5----5----|--5----5----5----5----5----5----5----5----|
     |                                          |                                          |
Gtr.E|------------------------------------------|------------------------------------------|
    H|-19---------------------------------------|-(19)----------------bend--slide down-----|
    G|------------------------------------------|------------------------------------------|
    D|------------------------------------------|------------------------------------------|
    A|------------------------------------------|------------------------------------------|
    E|------------------------------------------|------------------------------------------|

(0:43 - 1:24)

VERSE 1:

VoiceE|---------------------------------------------------------------------------------------------------|
     H|---------------------------------------------------------------------------------------------------|
     G|---------------------------------------------------------------------------------------------------|
     D|-2---2--2----2---------------------------2--2----2----2------2-2--------------------------------2--|
     A|----------------0-----0--0-----0--0-3------------------------------0---0--3----- ------------------|
     E|yu drevnih predkov   ya ros  chuzhakom,  i ne chtil  ni   svyatyh ni chertey.                  Ya  |
      |                                                 |                                                 |
Bass G|-------------------------------------------------|-------------------------------------------------|
     D|-------------------------------------------------|-------------------------------------------------|
     A|-------------------------------------------------|-------------------------------------------------|
     E|-5-----5-----5-----5-----5-----5-----5-----5-----|-5-----5-----5-----5-----5-----5-----5-----5-----|
 
VoiceE|---------------------------------------------------------------------------------------------------|
     H|---------------------------------------------------------------------------------------------------|
     G|---------------------------------------------------------------------------------------------------|
     D|--2----2-2---2-----------------------------2---2--2---2--2--2--------------------------------------|
     A|----------------0----0---0----0--0-3-------------------------------0----0--3---------------0--2--3-|
     E|shel protiv vetra,  ya shel  naprolom   v mir nezdeshnih i vol' - nyh  lyudey.            No ya ne |
      |                                                 |                                                 |
Bass G|-------------------------------------------------|-------------------------------------------------|
     D|-------------------------------------------------|-------------------------------------------------|
     A|-------------------------------------------------|-------------------------------------------------|
     E|-5-----5-----5-----5-----5-----5-----5-----5-----|-5-----5-----5-----5-----3-----3-----3-----3-----|
 
VoiceE|---------------------------------------------------------------------------------------------------|
     H|---------------------------------------------------------------------------------------------------|
     G|---------------------------------------------------------------------------------------------------|
     D|---------------------------------------------------------------------------------------------------|
     A|-(3)---2-----0-2-------5-------3----2----------0------0--------------------------------------------|
     E|-------------------------------------------3-------------------------------------------------------|
      |      byl   nikog  -  da      ra - bom     illyu  -  ziy.                                          |
      |                                                 |                                                 |
Bass E|-------------------------------------------------|-------------------------------------------------|
 +   H|-------------------------------------------------|-------------------------------------------------|
Gtr. G|----------------------------------------------2--|-(2)-----4h5p4p2---------------------5-----5\----|
     D|-------------------------------------------1--2--|-(2)---------------------------------5-----5\----|
     A|-------------------------6-----6-----6-----0--0--|-(0)------------------------------x--3-----3\----|
     E|-1-----1-----1-----1-----------------------------|-------------------------------------------------|
 
                                                   Zdes' molyatsya   bo - gu     i      satane,  bez ho -
Gtr.E|-------------------------------------------------|-------------------------------------------------|
    H|-------------------------------------------------|-------------------------------------------------|
    G|-\2----------------------------------------------|-(2)-----4h5p4p2---------------------------------|
    D|-\2----------------------------------------------|-(2)---------------------------------------------|
    A|-\0----------------------------------------------|-(0)---------------------------------------------|
    E|-------------------------------------------------|-------------------------------------------------|
      zya - ina trud - no  prozhit'.                 I kazh - dyy postro - il  sebe  po tyr'me,  verya v 
Gtr.E|-------------------------------------------------|-------------------------------------------------|
    H|-------------------------------------------------|-------------------------------------------------|
    G|-------------------------------------5-----5\----|-2-------4h5p4p2---------------------------------|
    D|-------------------------------------5-----5\----|-2-----------------------------------------------|
    A|----------------------------------x--3-----3\----|-0-----------------------------------------------|
    E|-------------------------------------------------|-------------------------------------------------|
    pravednost' tzarstvennoy lzhi.             No ya  ne    byl   ni - kog - da        ra -  bom    il - 
Gtr.E|-------------------------------------------------|-------------------------------------------------|
    H|-------------------------------------------------|-------------------------------------------------|
    G|-------------------------------------------------|----------------------------------------------2--|
    D|-------------------------------------------------|----------------------1--------------------1--2--|
    A|----------------------5-----------------------3--|-(3)------------------0--------------------0--0--|
    E|----------------------3-----------------------1--|-(1)---------------------------------------------|
     lyu - ziy.                               No ya  ne    byl   ni - kog - da        ra -  bom    il - 
Gtr.E|-------------------------------------------------|-------------------------------------------------|
    H|-------------------------------------------------|-------------------------------------------------|
    G|-(2)-----4h5p4p2---------------------------------|-------------------------------------------------|
    D|-(2)---------------------------------------------|----------------------1--------------------------|
    A|-(0)------------------------------------------3--|-(3)------------------0--------------------------|
    E|----------------------------------------------1--|-(1)---------------------------------------------|
      lyuziy!                                      
Gtr.E|------------------------------------------|------------------------------------------|
    H|------------------------------------------|------------------------------------------|
    G|------------------------------------------|---?-?-?-?-?------------------------------|
    D|--0---------------------------------------|------------------------------------------|
    A|------------------------------------------|------------------------------------------|
    E|------------------------------------------|------------------------------------------|

(1:25 - 2:10)

CHORUS:

VoiceE|-------------------------------------------------------------------|
     H|-------------------------------------------------------------------|
     G|-------------------------------------------------------------------|
     D|---5----5----5---7----5-------------5----5-----5---7------5----5---|
     A|-------------------------------------------------------------------|
     E|-Zdes' na   vershi - ne,          rya - dom   so mnoy, v ne - be --|
      |                                 |                                 |
Gtr.1E|---------------------------------|---------------------------------|
Gtr.2H|---------------------------------|---------------------------------|
     G|-0-----0-----0---2-----0-----0---|-0-----0-----0---2-----0-----0---|
     D|-0-----0-----0---0-----0-----0---|-0-----0-----0---0-----0-----0---|
     A|-x-----x-----x---x-----x-----x---|-x-----x-----x---x-----x-----x---|
     E|-3-3-3-3-3-3-3-3-3-3-3-3-3-3-3-3-|-3-3-3-3-3-3-3-3-3-3-3-3-3-3-3-3-|
 
VoiceE|-------------------------------------------------------------------|
     H|-------------------------------------------------------------------|
     G|-------------------------------------------------------------------|
     D|--5---3------3---3----3-----2------3-----2-----0-------------------|
     A|-------------------------------------------------------------------|
     E|-kruzhat   tri  be - lyh    or -  la  -  a  -  a    ---------------|
      |                                 |                                 |
Gtr.1E|---------------------------------|---------------------------------|
Gtr.2H|---------------------------------|---------------------------------|
     G|-2-----2-----2---2-----2-----2---|-2-----2-----2-------------------|
     D|-3-----3-----3---3-----3-----3---|-3-----3-----3-------------------|
     A|-3-----3-----3---3-----3-----3---|-3-----3-----3-----0-1-3-1-0-----|
     E|-1-1-1-1-1-1-1-1-1-1-1-1-1-1-1-1-|-1-1-1-1-1-1-1-1-3-----------3-1-|
 
VoiceE|-------------------------------------------------------------------|
     H|-------------------------------------------------------------------|
     G|-------------------------------------------------------------------|
     D|--5----5-----5---7----5-------------5----5----5----7-----5----5----|
     A|-------------------------------------------------------------------|
     E|- Gordost'   im  i - mya,          Duh   i   Po - koy,   a   za ---|
      |                                 |                                 |
Gtr.1E|---------------------------------|---------------------------------|
Gtr.2H|---------------------------------|---------------------------------|
     G|-0-----0-----0---2-----0-----0---|-0-----0-----0---2-----0-----0---|
     D|-0-----0-----0---0-----0-----0---|-0-----0-----0---0-----0-----0---|
     A|-x-----x-----x---x-----x-----x---|-x-----x-----x---x-----x-----x---|
     E|-3-3-3-3-3-3-3-3-3-3-3-3-3-3-3-3-|-3-3-3-3-3-3-3-3-3-3-3-3-3-3-3-3-|
 
VoiceE|-------------------------------------------------------------------|
     H|-------------------------------------------------------------------|
     G|-------------------------------------------------------------------|
     D|--5----3-----3---3-----3----2------3-----2-----0-------------------|
     A|-------------------------------------------------------------------|
     E| ni - mi    ni zla    ni   dob -  ra  -  a  -  a   ----------------|
      |                                 |                                 |
Gtr.1E|---------------------------------|---------------------------------|
Gtr.2H|---------------------------------|---------------------------------|
     G|-2-----2-----2---2-----2-----2---|-2-----2-----2-------------------|
     D|-3-----3-----3---3-----3-----3---|-3-----3-----3-------------------|
     A|-3-----3-----3---3-----3-----3---|-3-----3-----3-----0-1-3-1-0-----|
     E|-1-1-1-1-1-1-1-1-1-1-1-1-1-1-1-1-|-1-1-1-1-1-1-1-1-3-----------3-1-|
 
VoiceE|-------------------------------------------------------------------|
     H|-------------------------------------------------------------------|
     G|-------------------------------------------------------------------|
     D|---7---7-----7---9-----7-----------7----7------7---9-----7-----7---|
     A|-------------------------------------------------------------------|
     E| Stoy na    vershi  -  ne        rya - dom    so mnoy   tam  gde --|
      |                                 |                                 |
Gtr.1E|---------------------------------|---------------------------------|
Gtr.2H|-2-----2-----2---2-----2-----2---|-2-----2-----2---2-----2-----2---|
     G|-2-----2-----2---4-----2-----2---|-2-----2-----2---4-----2-----2---|
     D|-2-----2-----2---2-----2-----2---|-2-----2-----2---2-----2-----2---|
     A|-0-0-0-0-0-0-0-0-0-0-0-0-0-0-0-0-|-0-0-0-0-0-0-0-0-0-0-0-0-0-0-0-0-|
     E|---------------------------------|---------------------------------|
 
VoiceE|-------------------------------------------------------------------|
     H|-------------------------------------------------------------------|
     G|-------------------------------------------------------------------|
     D|--7---5------5----5----5-----4-----5-----4-----2-------------------|
     A|-------------------------------------------------------------------|
     E|-kruzhat   tri   be - lyh    or - la  -  a  -  a    ---------------|
      |                                 |                                 |
Gtr.1E|---------------------------------|---------------------------------|
Gtr.2H|---------------------------------|---------------------------------|
     G|-0-----0-----0---0-----0-----0---|-0-----0-----0-------------------|
     D|-0-----0-----0---0-----0-----0---|-0-----0-----0-------------------|
     A|-x-----x-----x---x-----x-----x---|-x-----x-----x-----0-1-3-1-0-----|
     E|-3-3-3-3-3-3-3-3-3-3-3-3-3-3-3-3-|-3-3-3-3-3-3-3-3-3-----------3-0-|
 
VoiceE|-------------------------------------------------------------------|
     H|-------------------------------------------------------------------|
     G|-------------------------------------------------------------------|
     D|--7----7-----7---9-----7-----------7-----7-----7----9----7----7----|
     A|-------------------------------------------------------------------|
     E|- Gordost'   im  i - mya,         Duh    i    Po - koy,  a    za  -|
      |                                 |                                 |
Gtr.1E|---------------------------------|---------------------------------|
Gtr.2H|-2-----2-----2---2-----2-----2---|-2-----2-----2---2-----2-----2---|
     G|-2-----2-----2---4-----2-----2---|-2-----2-----2---4-----2-----2---|
     D|-2-----2-----2---2-----2-----2---|-2-----2-----2---2-----2-----2---|
     A|-0-0-0-0-0-0-0-0-0-0-0-0-0-0-0-0-|-0-0-0-0-0-0-0-0-0-0-0-0-0-0-0-0-|
     E|---------------------------------|---------------------------------|
 
VoiceE|-------------------------------------------------------------------|
     H|-------------------------------------------------------------------|
     G|-------------------------------------------------------------------|
     D|--7----5---4-----5-----7-----7-----7-----5-----4---5---------------|
     A|-------------------------------------------------------------------|
     E| ni - mi  lish' vys', lish' ho  - lod - na  - ya  vys'  -----------|
      |                                 |                                 |
Gtr.1E|---------------------------------|---------------------------------|
Gtr.2H|---------------------------------|---------------------------------|
     G|-2-----0-----0---0-----2-----2---|-2-----0-----0-------------R-----|
     D|-0-----0-----0---0-----0-----0---|-0-----0-----0---5-5-5-5-5-E-----|
     A|-x-----x-----x---x-----x-----x---|-x-----x-----x---5-5-5-5-5-S-----|
     E|-3-3-3-3-3-3-3-3-3-3-3-3-3-3-3-3-|-3-3-3-3-3-3-3-3-3-3-3-3-3-T-----|
 
       1.-------------------------------------------------------------->>
VoiceE|-------------------------------------------------------------------|
     H|-------------------------------------------------------------------|
     G|-------------------------------------------------------------------|
     D|--9-------5--5-----------------------------------------------------|
     A|-------7---------6---7---------------------------------------------|
     E|-Ni   dobra ni zla - a! -------------------------------------------|
      |                                 |                                 |
Gtr. E|---------------------------------|---------------------------------|
     H|---------------------------------|---------------------------------|
     G|--2------------------x--5----5---|-\2------------------------------|
     D|--2------------------x--5----5---|-\2------------------------------|
     A|--0------------------x--3----3---|-\0------------------------------|
     E|---------------------------------|---------------------------------|

(2:11 - 2:52) VERSE 2 (substitute measures 1-5 by measures 8-12)

(2:52 - 3:33) CHORUS, with

alternative ending:

(3:33 - 3:54)

RIFF 1':
        2.-------------------------------------------------------------->>
       Ni     dob - ra  ni  zla!
Gtr.1E|--------------------------------------------------|-------------------------------------------------|
Gtr.2H|--------------------------------------------------|-------------------------------------------------|
     G|--------------2-----------------------------------|----------------------------------2--------------|
     D|-(2)-2--5--2-----5--4--5-----4--2--4-----2--------|-------2-----4--2-----5-----4--2--------5--4--2--|
     A|--------------------------------------------5--3--|(3)-3-----3--------3-----------------------------|
     E|--------------------------------------------------|-------------------------------------------------|


Gtr.1E|--------------------------------------------------|-------------------------------------------------|
Gtr.2H|--------------------------------------------------|-------------------------------------------------|
     G|--------------2-----------------------------------|----------------------------------2--------------|
     D|-(2)-2--5--2-----5--4--5-----4--2--4-----2--------|-------2-----4--2-----5-----4--2--------5--4--2--|
     A|--------------------------------------------5--3--|(3)-3-----3--------3-----------------------------|
     E|--------------------------------------------------|-------------------------------------------------|


Gtr.1E|--------------------------------------------------|-------------------------------------------------|
Gtr.2H|--------------------------------------------------|-------------------------------------------------|
     G|--------------2-----------------------------------|----------------------------------2--------------|
     D|-(2)-2--5--2-----5--4--5-----4--2--4-----2--------|-------2-----4--2-----5-----4--2--------5--4--2--|
     A|--------------------------------------------5--3--|(3)-3-----3--------3-----------------------------|
     E|--------------------------------------------------|-------------------------------------------------|


Gtr.1E|--------------------------------------------------|-------------------------------------------------|
Gtr.2H|--------------------------------------------------|-------------------------------------------------|
     G|--------------2-----------------------------------|----------------------------------2--------------|
     D|-(2)-2--5--2-----5--4--5-----4--2--4-----2--------|-------2-----4--2-----5-----4--2--------5--4-----|
     A|--------------------------------------------5--3--|(3)-3-----3--------3-----------------------------|
     E|--------------------------------------------------|-------------------------------------------------|

(3:54 - 5:03)

SOLO:

Gtr.1E|--- x /\/\/\/ -- tremolo bar or wah pedal effects |---/\/\/\/\/\------------------------------------|
     H|--------------------------------------------------|-------------------------------------------------|
     G|--------------------------------------------------|-------------------------------------------------|
     D|--------------------------------------------------|-------------------------------------------------|
     A|--------------------------------------------------|-------------------------------------------------|
     E|--------------------------------------------------|-------------------------------------------------|
      |                                                  |                                                 |
Gtr.2E|--------------------------------------------------|-------------------------------------------------|
     H|--------------------------------------------------|-------------------------------------------------|
     G|--------------------------------------------------|-------------------------------------------------|
     D|--------------------------------------------------|-------------------------------------------------|
     A|-----------------------------------3--------------|-------------------------------------------------|
     E|--5--0--0--3--0--0--6--0--3--5--6-----6--5--3--0--|-5--0--0--3--0--0--6--0--?--?--------------------|
 
Gtr.1E|--------------------------------------------------|-------------------18-------21-------------------|
     H|------- ??????????????????? ----------------------|-17-------20-------------------------------------|
     G|--------------------------------------------------|-------------------------------------------------|
     D|--------------------------------------------------|-------------------------------------------------|
     A|--------------------------------------------------|-------------------------------------------------|
     E|--------------------------------------------------|-------------------------------------------------|
      |                                                  |                                                 |
Gtr.2E|--------------------------------------------------|-------------------------------------------------|
     H|--------------------------------------------------|-------------------------------------------------|
     G|--------------------------------------------------|-------------------------------------------------|
     D|--2--------2--------2--------2--------3-----0-----|-2--------2--------2--------2--------2-----2-----|
     A|--2--------2--------2--------2--------3-----0-----|-2--------2--------2--------2--------2-----2-----|
     E|-----0--0-----0--0-----0--0-----0--0--------------|----0--0-----0--0-----0--0-----0--0--------------|
 
Gtr.1E|--------19----------------------------------------|----------------------------------------------7--|
     H|-----19----------19-------------------------------|-------------------------------------7--8--10----|
     G|--16----------16----------16----------------------|----------------------------6--7--9--------------|
     D|-----------17----------17-------------------------|-------------------6--7--9-----------------------|
     A|--------------------15----------------------------|----------6--7--9--------------------------------|
     E|-----------------------------------17\\-sl. down -|-------8-----------------------------------------|
      |                                                  |                                                 |
Gtr.2E|--------------------------------------------------|-------------------------------------------------|
     H|--------------------------------------------------|-------------------------------------------------|
     G|--------------------------------------------------|-------------------------------------------------|
     D|--------------------------------------------------|-------------------------------------------------|
     A|-----------------------------------3--------------|----------------------------------3--------------|
     E|--5--0--0--3--0--0--6--0--3--5--6-----6--5--3--0--|-5--0--0--3--0--0--6--0--3--5--6-----6--5--3--0--|
 
Gtr.1E|--12----------------12-------13-------15----13----|-12----------------12----------------------------|
     H|-----------12-------------------------------------|----------12----------------12-------13----12~~~-|
     G|--------------------------------------------------|-------------------------------------------------|
     D|--------------------------------------------------|-------------------------------------------------|
     A|--------------------------------------------------|-------------------------------------------------|
     E|--------------------------------------------------|-------------------------------------------------|
      |                                                  |                                                 |
Gtr.2E|--------------------------------------------------|-------------------------------------------------|
     H|--------------------------------------------------|-------------------------------------------------|
     G|--------------------------------------------------|-------------------------------------------------|
     D|--2--------2--------2--------2--------3-----0-----|-2--------2--------2--------2--------2-----2-----|
     A|--2--------2--------2--------2--------3-----0-----|-2--------2--------2--------2--------2-----2-----|
     E|-----0--0-----0--0-----0--0-----0--0--------------|----0--0-----0--0-----0--0-----0--0--------------|
 
Gtr.1E|--12----------------------------------------------|-------------------------------------------------|
     H|--15b17----15b17-15b17-15b17-15b17r15-------------|-15----------13----------15----------16----------|
     G|--------------------------------------14----------|----14-14-14----14-14-14----14-14-14----14-14-14-|
     D|--------------------------------------------------|-------------------------------------------------|
     A|--------------------------------------------------|-------------------------------------------------|
     E|--------------------------------------------------|-------------------------------------------------|
      |                                                  |                                                 |
Gtr.2E|--------------------------------------------------|-------------------------------------------------|
     H|--------------------------------------------------|-------------------------------------------------|
     G|--------------------------------------------------|-------------------------------------------------|
     D|-----------------------------------3--------------|----------------------------------3--------------|
     A|--5--0--0--3--0--0--6--0--3--5--6-----6--5--3--0--|-5--0--0--3--0--0--6--0--3--5--6-----6--5--3--0--|
     E|--------------------------------------------------|-------------------------------------------------|
 
Gtr.1E|--17-------15-------17-------12-------13----------|-------------------------------------------------|
     H|--------------------------------------------15----|-12-------11-------12~~~-------------------------|
     G|--------------------------------------------------|-13-------12-------13-------13-------14----------|
     D|--------------------------------------------------|----------------------------14-------15----15----|
     A|--------------------------------------------------|-------------------------------------------17----|
     E|--------------------------------------------------|-------------------------------------------------|
      |                                                  |                                                 |
Gtr.2E|--------------------------------------------------|-------------------------------------------------|
     H|--------------------------------------------------|-------------------------------------------------|
     G|--------------------------------------------------|-------------------------------------------------|
     D|--2--------2--------2--------2--------3-----0-----|-2--------2--------2--------2--------2-----2-----|
     A|--2--------2--------2--------2--------3-----0-----|-2--------2--------2--------2--------2-----2-----|
     E|-----0--0-----0--0-----0--0-----0--0--------------|----0--0-----0--0-----0--0-----0--0--------------|
 
Gtr.1E|--------------------------------------------------|----------------------------------17-------16-17-|
     H|--------------------------------------------------|----------------------17----15-18----15-17-------|
     G|-15b17~~~~~~~~~--14-------------------------------|----------17----14-17----15---------- . ---------|
     D|--------------------17-15-14----------------------|----14-17----15----------------------------------|
     A|-----------------------------17-15-14-15-14-------|-15----------------------------------------------|
     E|--------------------------------------------17-15-|-------------------------------------------------|
      |                                                  |                                                 |
Gtr.2E|--------------------------------------------------|-------------------------------------------------|
     H|--------------------------------------------------|-------------------------------------------------|
     G|--------------------------------------------------|-------------------------------------------------|
     D|--------------------------------------------------|-------------------------------------------------|
     A|-----------------------------------3--------------|----------------------------------3--------------|
     E|--5--0--0--3--0--0--6--0--3--5--6-----6--5--3--0--|-5--0--0--3--0--0--6--0--3--5--6-----6--5--3--0--|
 
Gtr.1E|--19p16p0--20p17p0--19p16p0--19p16p0--16p13p0-16p13\-|-7-p4-p0--8-p5-p0--7p4p0-7-p4-p0--4-p1p0--4-p1p0-|
     H|----------------------------------------------sl--|-------------------------------------------------|
     G|---------------------------------------------down-|-------------------------------------------------|
     D|--------------------------------------------------|-------------------------------------------------|
     A|--------------------------------------------------|-------------------------------------------------|
     E|--------------------------------------------------|-------------------------------------------------|
      |                                                  |                                                 |
Gtr.2E|--------------------------------------------------|-------------------------------------------------|
     H|--------------------------------------------------|-------------------------------------------------|
     G|--------------------------------------------------|-------------------------------------------------|
     D|--2--------2--------2--------2--------3-----0-----|-2--------2--------2-----2--------2--------2-----|
     A|--2--------2--------2--------2--------3-----0-----|-2--------2--------2-----2--------2--------2-----|
     E|-----0--0-----0--0-----0--0-----0--0--------------|----0--0-----0--0-----0-----0--0-----------------|
 
Gtr.1E|--------------------------------------------------|-------------------------------------------------|
     H|--------------------6-----------------------8-----|-10-------8--------6-----------------------------|
     G|-----------7--------------9-------10--------------|-------------------------9--------7~~~~~~--5-----|
     D|--8-----------------------------------------------|-------------------------------------------------|
     A|--------------------------------------------------|-------------------------------------------------|
     E|--------------------------------------------------|-------------------------------------------------|
      |                                                  |                                                 |
Bass G|--------------------------------------------------|-------------------------------------------------|
     D|--------------------------------------------------|-7--------7--------7-----5--------5--------5-----|
     A|-----------5--------5-------------7---------7-----|-------5--------5--------------3--------3--------|
     E|--6--------------6--------8--------------8--------|-------------------------------------------------|
 
Gtr.1E|--------------------------------------------------|-------------------------------------------------|
     H|--------------------6-----------------------8-----|-10------13bend15--------------------------------|
     G|-----------7--------------9-------10--------------|-----R-------------------------------------------|
     D|--8-----------------------------------------------|-----E-------------------------------------------|
     A|--------------------------------------------------|-----S-------------------------------------------|
     E|--------------------------------------------------|-----T-------------------------------------------|
      |                                                  |                                                 |
Bass G|--------------------------------------------------|-------------------------------12----14----------|
     D|--------------------------------------------------|-0--------12-------14----15----------------------|
     A|-----------5--------5-------------7---------7-----|-------------------------------------------------|
     E|--6--------------6--------8--------------8--------|-------------------------------------------------|
 
Gtr.1E|--------------------------------------------------|-------------------------------------------------|
     H|--------------------6-----------------------8-----|-10-------8--------6-----------------------------|
     G|-----------7--------------9-------10--------------|-------------------------9--------7~~~~~~--5-----|
     D|--8-----------------------------------------------|-------------------------------------------------|
     A|--------------------------------------------------|-------------------------------------------------|
     E|--------------------------------------------------|-------------------------------------------------|
      |                                                  |                                                 |
Bass G|--------------------------------------------------|-------------------------------------------------|
     D|--------------------------------------------------|-7--------7--------7-----5--------5--------5-----|
     A|-----------5--------5-------------7---------7-----|-------5--------5--------------3--------3--------|
     E|--6--------------6--------8--------------8--------|-------------------------------------------------|
 
Gtr.1E|--------------------------------------------------|-------------------------------------------------|
     H|--------------------6-----------------------8-----|-10------13bend15--------------------------13h15-|
     G|-----------7--------------9-------10--------------|-----R-------------------------------------------|
     D|--8-----------------------------------------------|-----E-------------------------------------------|
     A|--------------------------------------------------|-----S-------------------------------------------|
     E|--------------------------------------------------|-----T-------------------------------------------|
      |                                                  |                                                 |
Bass G|--------------------------------------------------|-------------------------------------------------|
     D|--------------------------------------------------|-0--0--0--0--0--0--0--0--0--0--0--0--0--0--0--0--|
     A|-----------5--------5-------------7---------7-----|-------------------------------------------------|
     E|--6--------------6--------8--------------8--------|-------------------------------------------------|
 
         O - o!                                             O - o !         
Gtr.1E|--14----------------------------------------------|--17~~~~~~~~~~~~~~~~~~~~~~~~~~~~~~~~~~~~~~~~~~~~-|
     H|--------------------------------------------------|-------------------------------------------------|
     G|--------------------------------------------------|-------------------------------------------------|
     D|--------------------------------------------------|-------------------------------------------------|
     A|--------------------------------------------------|-------------------------------------------------|
     E|--------------------------------------------------|-------------------------------------------------|
      |                                                  |                                                 |
Bass G|--------------------------------------------------|-------------------------------------------------|
     D|--0--0--0--0--0--0--0--0--0--0--0--0--0--0--0--0--|-0--0--0--0--0--0--0--0--0--0--0--0--0--0--0--0--|
     A|--------------------------------------------------|-------------------------------------------------|
     E|--------------------------------------------------|-------------------------------------------------|
 
         Ye - e!  
Gtr.1E|-(17)~~~~~~~~~~~~~~~~~~~~~~~----------------------|
     H|--------------------------------------------------|
     G|--------------------------------------------------|
     D|--------------------------------------------------|
     A|--------------------------------------------------|
     E|--------------------------------------------------|
      |                                                  |
Bass G|--------------------------------------------------|
     D|--0--2--2--2--2-/4--4--4--4--5--5--5--5--7--7--7--|
     A|--------------------------------------------------|
     E|--------------------------------------------------|

(5:03 - 5:44) CHORUS, finishing with:

(5:44 - 5:47)

RIFF 1":

        3.-------------------------------------------------------------->>

       Ni     dob - ra  ni  zla!

Gtr.1E|--------------------------------------------------|-------------------------------------------------|
Gtr.2H|--------------------------------------------------|-------------------------------------------------|
     G|--------------2-----------------------------------|-------------------------------------------------|
     D|-(2)-2--5--2-----5--4--5-----4--2--4-----2-----2--|-(2)---------------------------------------------|
     A|--------------------------------------------5-----|-------------------------------------------------|
     E|--------------------------------------------------|-------------------------------------------------|


          РАБСТВО ИЛЛЮЗИЙ
     (Дубинин/Холстинин/Пушкина)
     ----------------------------

Подбор: Alexey Shamaev, 2:5095/28@fidonet


1||---------5-------------------|-----------------------5-------|
2||-5-5-8-5---8-7-8--7-5-7--5-3-|-----5---7-5----8--7-5----8-7--| => 4 раза
3||-----------------------------|-5-5---5-----5-----------------|

Am
В краю древних предков я рос чужаком
И не чтил ни святых, ни чертей.
Я шел против ветра, я шел напролом
                             G
В мир нездешних и вольных людей,
      F           G          Am
Hо я не был никогда рабом иллюзий.


Здесь молятся Богу и Сатане
Без хозяина трудно прожить,
И каждый построил себе по тюрьме,
                                 G
Веря в праведность царственной лжи,
      F           G          D
Hо я не был никогда рабом иллюзий.


Припев:
     G
   Здесь, на вершине
   Рядом со мной
            F
   В небе кружат три белых орла.
    G
   Гордость - им имя,
   Дух и Покой,
         F
   А за ними ни Зла, ни Добра.


     A
   Стой на вершине
   Рядом со мной
             G
   Там где кружат три белых орла.
    A
   Гордость - им имя,
   Дух и Покой,
         G
   А за ними лишь высь,
   Лишь холодная высь.
   Am
   Hи Добра, ни Зла.


Меня проклинали, смеялись в лицо,
А старухи плевали мне в след.
Друзья награждали терновым венцом
И пророчили множество бед,
Hо я не был никогда рабом иллюзий.


Hо даже в час смерти не стану другим
И никто не поставит мне крест.
Я буду свободным, но трижды чужим
Для пустых и холодных небес.
Я не стану никогда рабом иллюзий.

Припев.

 






                       


Copyright © Музыкальный Портал на Куличках 1999-2007      music@kulichki.com


    Stolica.ru    
Реклама в Интернет