Stolica.ru Реклама на Куличках     

Аккорды песен:
A B C D E F G H I J K L M N O P Q R S T U V W X Y Z
АБВГДЕЖЗИКЛМНОПРСТУФХЦЧШЩЭЮЯ





Тексты песен :     A B C D E F G H I J K L M N O P Q R S T U V W X Y Z #

ПОЛНЫЙ СПИСОК ПЕСЕН ГРУППЫ




-->




АЛИСА   

                      Дурак и солнце
                      --------------
              Автор подбора : Igor V. Shkolin  Fido:   2:5020/795.0
                              E-Mail: ivs@f795.n5020.z2.fidonet.org

  --0-3-5---3-5-3----------------------3--------------------------
  ------------------5-3-5--------3-5-6---5------------------------
  -----------------------------5-------------4---2-0-2------------
  -------------------------------------------------------2p0h2----
  -------------------------------------------------------------0--
  ----------------------------------------------------------------

  ------------------------------0-3-5---3-5-3---------------------
  ----------------------------------------------5-3-5-------------
  ------2---4-2-4---5-4-5-----------------------------------------
  --2-5-----------------------------------------------------------
  ----------------------------------------------------------------
  ----------------------------------------------------------------

                         Dm
    Hе бог весть, черти как
                    F
    Жил на свете дурак
                    Dm  G            Am
    Без царя в голове, сам как на ладони
    В тех краях, где угар,
    Голод, мор, да пожар,
    Где дым стада облаков по земле гонит.

    Так он в копоти жил,
    Hе петлял, не кружил.
    Верой-правдой служил, ветру настежь душу.
    Как солнце нашел,
    Да по звездам прошел,
    Я тебе расскажу - слушай.

                   F               C         Am
              За тридевять земель неба на краю
                F      G   Em                        Am
              Пляшет мрак по тpyхлявым пеpекошеным пням,
                              F
              Да наводит на свет
               Em          Am
              Серый пепел порчи
              F                  C              Am
              А над всей землей солнца нет сто лет
                                 F          G        Am
              Только ночь, да разорванных звезд клочья

  --------------------------------------------------------------------
  --------------------------------------------------------------------
  --------------------------------------------------------------------
  ----5-7---5-7-5-----------------------------------------------------
  --7---------------7-5-7---7-5-3/7---0-3-3p0h3---0h3h5~---3h5h7/12---
  --------------------------------------------------------------------

  ---------------------------------------------------------------------
  ------------------------------------------13-15-17p15p13h15p13h15h17p
  --------------------------12>(14)>12---14----------------------------
  --------10h12>(14)>12p10---------------------------------------------
  --10h12--------------------------------------------------------------
  ---------------------------------------------------------------------

  -------------------------------------15h17p15p12h15-15/17~--15h17p15~
  p15p13h15p13h15h17p15p13h15p13h15h17---------------------------------
  ---------------------------------------------------------------------
  ---------------------------------------------------------------------
  ---------------------------------------------------------------------
  ---------------------------------------------------------------------

  --12p10h12~~~--
  ---------------
  ---------------
  ---------------
  ---------------
  ---------------

    А народ в тех краях
    В мути, в темени чах.
    И, не сразу, не вдруг, но забыл, что жил иначе.
    В хороводе ночей
    Стыло пламя очей
    И со временем в тех краях не осталось зрячих.

              Лед пустых глазниц, оторопь сердец,
              Кривотолков чад гонит дурака по сонной земле,
              Где не стынет закат,
              Где не плещут зори.
              Сколько лет в пути, а сколько впереди,
              Как найти да помочь дураку одолеть горе.

  C5/A5    G5/D#5


         A5                         E5
        Hа краю небес вырывает бес из волос репьи-мраки.
         A5                               E5
        Да блюет на свет звездами побед, беса не унять в драке.
         D5                             E5
        Разметать репьи по краям земли нынче дураку сила
         A5                              E5                     Am
        Да с небес сорвать бешеную тать солнцу помоги, милый!

                                        Dm
             Кто видел, как по небу плывет огонь,
                                    Am
             Какая в синем радость золотого.
                                       Dm
             Как к водопою спускается белый конь,
                                              Am
             Как отражают солнца свет его подковы.
                                        Dm
             Как в облаках искрятся ресницы зорь,
                                                Am
             Как от росы скользят по травам переливы.
                                        Dm
             Кто видел, как из сердца уходит боль
                                                Am     E
             Как хорошо тогда, легко, и как красиво.

    Hи в аду, ни в раю,
    А на самом краю,
    Где землей отрадясь правил бледный почерк
    Чтобы свет разметать
    Hад землею опять
    Бился с мутью дурень три дня и три ночи.

              Свет осенних звезд вплел в прядь своих волос,
              Солнца луч был в его руке сияньем клинка,
              Где кровавый закат
              Да златые кольца
              Я там тоже был, этот сказ сложил,
              А над нами по сей день горит солнце.


--------------------------------------------------------------------
  --------------------------------------------------------------------
  --------------------------------------------------------------------
  ----5-7---5-7-5-----------------------------------------------------
  --7---------------7-5-7---7-5-3/7---0-3-3p0h3---0h3h5~---3h5h7/12---
  --------------------------------------------------------------------

  --------------------------------------15-17-15-----12h15h17p15p12h15
  -----------------------10-12-13---/17-------------------------------
  ---------------9-10-12----------------------------------------------
  ----10-12>(14)------------------------------------------------------
  -12-----------------------------------------------------------------
  --------------------------------------------------------------------

  p12--12h15p12h15p12--12---------------------------------------------
  ---15--------------15--15-13-12----12-13-15>(17)----15h17p15p13--12~
  --------------------------------14----------------------------------
  --------------------------------------------------------------------
  --------------------------------------------------------------------
  --------------------------------------------------------------------

  -------------      ;
  -------------      ;  За правильность этого соляка я не ручаюсь,
  --14p12h14---      ;  ибо быстрая часть представляет просто набор
  -------------      ;  нот.
  -------------      ;
  -------------


 






                       


Copyright © Музыкальный Портал на Куличках 1999-2007      music@kulichki.com


    Stolica.ru    
Реклама в Интернет