Stolica.ru Реклама на Куличках     

Аккорды песен:
A B C D E F G H I J K L M N O P Q R S T U V W X Y Z
АБВГДЕЖЗИКЛМНОПРСТУФХЦЧШЩЭЮЯ





Тексты песен :     A B C D E F G H I J K L M N O P Q R S T U V W X Y Z #

ПОЛНЫЙ СПИСОК ПЕСЕН ГРУППЫ




-->




АЛИСА   
                             Красное на черном
                             -----------------
                           Подобрал  -  Alex Melamed

   Гармония ( "/" означает -> два раза, т.е. "Dm/" = "Dm|Dm" )

Тема -> 4/4 -> | Dm/ | Bb/ | C/ | A/ |
Припев -> | Dm | Gm | F | C | Dm | Gm | A/ |
Соло ->  (То же, что и в теме) -> | Dm/ | Bb/ | C/ | A/ |

  Bass

Teмa:

   Dm              Bb             C               A
G|--------------------------------------------------------------------------
D|--------------------------------------------------------------------------
A|-5-5-5-5-5-5-5-5----------------3-3-3-3-3-3-3-3-0-0-0-0-0-0-0-0-----------
E|-----------------6-6-6-6-6-6-6-6------------------------------------------

Припев:

   Dm      Gm      F       C
G|--------------------------------------------------------------------------
D|-----------------3-3-3-3--------------------------------------------------
A|-5-7-8-5-----------------3-3-3-3------------------------------------------
E|---------3-5-6-3----------------------------------------------------------

   Dm      Gm      A
G|--------------------------------------------------------------------------
D|-----------------7-7-----7-7-----7-7-----7-7------------------------------
A|-5-7-8-5-------------5-5-----5-5-----5-5-----5-5--------------------------
E|---------3-5-6-3----------------------------------------------------------

 Гитара 1 (Гитара 2 может играть то-же самое, пока ей нечего делать)

Tema:

    Dm                Bb                C                 A
e|--------------------1-1-0-0--1-1-0-0--------------------------------------
B|--------------------3-3-3-3--3-3-3-3--5-5-5-6--5-5-5-6--------------------
G|--7-7-7-5--7-7-7-5--3-3-3-3--3-3-3-3--5-5-5-5--5-5-5-5--------------------
D|--7-7-7-5--7-7-7-5--3-3-3-3--3-3-3-3--5-5-5-5--5-5-5-5--------------7-----
A|--5-5-5-3--5-5-5-3--------------------3-3-3-3--3-3-3-3------4-4-7-7-------
E|--------------------------------------------------------5-5---------------

Припев:

   Dm      Gm      F       C         Dm       Gm     A (Riff A - два раза)
e|--------------------------------------------------------------------------
B|-------------------------5--6-5--------------------10-10-----10-10--------
G|-7-7-7-7-----------------5--5-5----7-7-7-7--------------------------------
D|-7-7-7-7-5-5-5-5-3-3-3-3-5--5-5----7-7-7-7-5-5-5-5-------7-7-------7-7----
A|-5-5-5-5-5-5-5-5-3-3-3-3-3--3-3----5-5-5-5-5-5-5-5------------------------
E|---------3-3-3-3-1-1-1-1-------------------3-3-3-3------------------------
(Красное на черном!                Красное на черном!)

Solo:

 Гитара 1

e|-------------------
B|-------------------
G|--7-7-7-5--7-7-7-5-
D|--7-7-7-5--7-7-7-5-
A|--5-5-5-3--5-5-5-3-
E|-------------------

Гитара 1 держит последний аккорд, пока Гитара 2 играет свое
вступление, затем играет аккорды, написаные вверху на партии
Гитары 2 (D5, и т.д).

 Гитара 2 (Lead Guitar)

Вступление к соляку (можно играть без "pull-off", т.е. - 7-6-5):

e|-------------------
B|-------------------
G|-7p6p5-------------
D|------7p6p5--------
A|-----------7p6p5-3-
E|-------------------

Соляк

 +- Два раза
 |         D5                    Bb
e|--------------------------------------------------------
B|---------6----------5----------8----------6-------------
G|-----6-7--------6-7--------6-7--------6-7---------------
D|-6-7--------6-7--------6-7--------6-7-------------------
A|--------------------------------------------------------
E|--------------------------------------------------------

                                                                            -+
                                           | Конец1 | Конец второго раза     |
           C5                    A5        |        |                        |
e|-------------------------------6---------|5-------|------------------------|
B|---------8----------6--------------------|--------|-5----------------------|
G|-----6-7--------6-7--------6-7--------6-7|--------|------------------------|
D|-6-7--------6-7--------6-7--------6-7----|--------|------------------------|
A|-----------------------------------------|--------|------------------------|
E|-----------------------------------------|--------|------------------------|


Обозначения аккордов из партии первой гитары в соляке:

    D5  Bb  C   A5
e| --- -1- --- ---
B| --- -3- -5- ---
G| -7- -3- -5- ---
D| -7- -3- -5- -7-
A| -5- --- -3- -7-
E| --- --- --- -5-
Внимание! "B" - обозначает русский аккорд "H", а "Bb" - русский "B"!
(Соответственно играете вместо Bm -> Hm и вместо Bbm -> Bm)

 






                       


Copyright © Музыкальный Портал на Куличках 1999-2007      music@kulichki.com


    Stolica.ru    
Реклама в Интернет