Stolica.ru Реклама на Куличках     

Аккорды песен:
A B C D E F G H I J K L M N O P Q R S T U V W X Y Z
АБВГДЕЖЗИКЛМНОПРСТУФХЦЧШЩЭЮЯ





Тексты песен :     A B C D E F G H I J K L M N O P Q R S T U V W X Y Z #

ПОЛНЫЙ СПИСОК ПЕСЕН ГРУППЫ




-->




АЛИСА   
                             Все в наших руках.
                             ------------------

   |---------------------------|----------------------------|
   |---------------------------|----------------------------|
   |---------------7-----------|---------------7------------|
   |-----7--9--10-----9------7~|-----7--9--10-----9------7~-|
   |--7------------------10----|--7------------------10-----|
   |---------------------------|----------------------------|

   |---------------------------|----------------------------------|
   |---------------------------|----------------------------------|
   |---------------7-----------|----------------------------------|
   |-----7--9--10-----9------7~|--10--10-9--7-5--4-3--10--5------9|
   |--7------------------10----|----------------------------8--7--|
   |---------------------------|----------------------------------|

   Chords:

   Intro -

   Em Hm Em  Em Hm Em  Em Hm Em  C H7

   The rest -

   B Am F C B Am Dm

Transcribed by Dead Moroz,

with help of Ksavera Zigfridovna.


 






                       


Copyright © Музыкальный Портал на Куличках 1999-2007      music@kulichki.com


    Stolica.ru    
Реклама в Интернет