Stolica.ru Реклама на Куличках     

Аккорды песен:
A B C D E F G H I J K L M N O P Q R S T U V W X Y Z
АБВГДЕЖЗИКЛМНОПРСТУФХЦЧШЩЭЮЯ





Тексты песен :     A B C D E F G H I J K L M N O P Q R S T U V W X Y Z #

ПОЛНЫЙ СПИСОК ПЕСЕН ГРУППЫ




-->




АЛИСА   
                                   "Дурак"
                           Музыка П.С. Самойлов
                     Слова  П.С. Самойлов / К. Кинчев

    Intro (4 x lead 1)
    lead 1                                              end of lead 1
       Em/G        C          G       Am       Em
    e|-3--2--0-----0----0-------------------------------------------|
    H|----------3----------3--0--------1--0-------------------------|
    G|---------------------------------------2--0-------------------|
    D|---------------------------------------------2----------------|
    A|--------------------------------------------------------------|
    E|--------------------------------------------------------------|
     |                                                              |
    e|--------------------------------------------------------12(---|
    H|-----------------------------0--------------------0-----12)---|
    G|--------------------------0--------------------0--------12'---|
    D|--------------------------------------------------------------|
    A|--------------------------------------------------------------|
    E|--------------------------------------------------------------|

                                                             Harm.
     Em                     Hm
     e   e  g   e  d   e    g   f#
    Как-то раз по вес-не   ран-ней
     g   g  a   g  f#  g    b   a
    По- ма-ни- ла  по-жар  пти-ца
     b   b  d^  b  a   g    g   f#
    На  до-ро -ги зем-ли   дур-ня
       e    e   d  d        f#  B
    К солн-цу тро-пы        ис-кать

     2 x lead 1

    Hад землей городов крыши,
    А над крышами - дым, сажа,
    А над сажей небес выше -
    Солнца белая рать.

    lead 2
       Em      Em          Am      Em     Am     C      Hm     Em
    e|-7-5-7-5-7------------------------------------------------------|
    H|---------------------10-8-10--8-7-8--7-5-7----------------------|
    G|--------------------------------------------9-7-9--7-5-7--4-2-4-|
    D|----------------------------------------------------------------|
    A|----------------------------------------------------------------|
    E|----------------------------------------------------------------|
     |                                                                |
    e|---------12----12-----------------------------------------------|
    H|------------12----12---И так далее все время--------------------|
    G|----------------------------------------------------------------|
               ^^^^^^^^^^^|-Флажолеты (Harm)

       Em      Em      Am      Em     Am     C      Hm     Em
    e|--------------------------------------------------------------|
    H|--------------------------------------------------------------|
    G|-4-2-4-2-4---2-0-2--------------------------------------------|
    D|---------------------5-4-5--4-2-4-----------------------------|
    A|-----------------------------------7-5-7---5-3-5--2-0-2-------|
    E|--------------------------------------------------------------|


    Сколько горя в нужде дурень мыкал,
    Износил сапогов сотни,
    А рубах изодрал столько,
    Сколько трав истоптал.
    По лесам собирал сказки
    Да учился у птиц песням,
    Веселил городов толпы,
    Hо ближе к Солнцу не стал.
                                                            Am      Hm
                                           ---0---0---0---0---0---0---2---2-
Ох, тропинки-лесенки            апликатура -0-0-0-0-0-0-0-0-1-1-1-1-3-3-3-3-
                      Am Hm     такая:     -0---0---0---0---2---2---4---4---
Прямо по земле в небеса!                   ---------------------------------
Как найти, увидеть                         ---------------------------------
Да не проглядеть, не потерять.             ---------------------------------

A          E
 А у неба радости.
 E       A             H           E
 Только Солнцу глянешь утром в глаза,
 C             Hm
 Отвернешь, укроешься
 C
 Да слезою вспыхнешь опять...


 Опять!                         Вот так!                  В сказку словом бъемся
  Riff A
  |-----------------------12-12-12------------------------------|
  |-----------------------12-12-12------------------------------|
  |-----------------------12-12-12------------------------------|
  |-------------------------------------------------------------|
  |-------------------------------------------------------------|
  |-0---0-3--5--6--5--3--0-----------0---0-3--5--6--5--3--0-----|


                               Вот так!                       Вот, Смеемся!
                                                          End of Riff A
  |-----------------------12-12-12----------------------------------|
  |-----------------------12-12-12----------------------------------|
  |-----------------------12-12-12----------------------------------|
  |-----------------------------------------------------------------|
  |-----------------------------------------------------------------|
  |-0---0-3--5--6--5--3--0-------------0---0-3--5--6--5--3--7-------|

    Ходит ду-рак....        по земле босиком
  |----------------------------------------------------------------------|
  |----------------------------------------------------------------------|
  |--------------------------------------------------2-2-----------------|
  |-----------2-----------0----------------------4-4-0-0-----------------|
  |-----------------------------------4----------2-2---------------------|
  |--------------3-2-0-------3-2-0-------3-2-0---------------------------|
                |-----PM    |-----PM    |------PM

    Берегами рек....        да опушкой леса
  |----------------------------------------------------------------------|
  |----------------------------------------------------------------------|
  |----------------------------------------------------------------------|
  |-----------2-----------0----------------------4-4-2-2-----------------|
  |-----------------------------------4----------2-2-0-0-----------------|
  |--------------3-2-0-------3-2-0-------3-2-0---------------------------|
                |-----PM    |-----PM    |------PM

    Веселит дурак   почтенный народ
  |--------------------------------------------|
  |--------------------------------------------|
  |--------------------------------------------|
  |-7-7-7---99-99-9----4--4---4-4-4---4-4-4----|
  |-5-5-5---77-77-7----2--2---2-5-2---2-5-2----|
  |--------------------------------------------|

    Все да по   площадям, городам.
  |--------------------------------------------|
  |--------------------------------------------|
  |--------------------------------------------|
  |--7--7--7---99-99-9---4-4--4-4-4------------|
  |--5--5--5---77-77-7---2-2--2-5-2---2--------|
  |-------------------------------------5-3----|

   И ты,    как он,             проходишь по земле.
Riff B                                              End of Riff B
|-------------------------------------------------------------|
|-------------------------------------------------------------|
|-------------------------------------------------------------|
|-----------------2-----------------------------2-------------|
|---------5--4--------0-1-2-------------5--4--------0-1-2---2-|
|---0-----------------------3-----0-----------------------3---|
  PM--------------------------------------------------------|


   Ему, как всем, тебе, как всем, от рода по судьбе.
    (Вместе с Riff B)
   Иди своей дорогой! Ищи свою тропу!
    (Вместе с Riff B)

     H5
   Hайдет дурак, найдешь и ты. Даст Бог, и я найду!

   Вот так !!! В сказку словом бьемся... Вот так!!! Смеемся-а.
    (Вместе Riff A)


|-------12---------7-----------------------------------------|
|------------------------------------------------------------|
|------------------------------------------------------------|
|------------------------------------------------------------|
|------------------------------------------------------------|
|------------------------------------------------------------|
        Harm        Harm

  Это только присказка, а сказка бежит речкой...
  Да дела не идут скоро.
  Ближе к Солнцу не стал дурень,
  Hо стал теплее в сердцах.
  Где бы он ни сложил песню,
                             |--------5--2-------------------|
                             |-----3-------------------------|
                             |--4----------------------------|
  Где бы ни проросло Слово,
                             |--5----------------------------|
                             |-----8--7----------------------|
                             |-------------------------------|
  Стелет в небо из звезд тропы
  По горячим следам.

  Стелет сквозь городов крыши,
                             |-------------------------------|
                             |----------3--------------------|
                             |--0--0--4---4------------------|
  Выше крыш да сквозь дым, сажу
                             |-------------------------------|
                             |--12-10------------------------|
                             |--------9----------------------|
  Стелет даже небес выше
                             |--0----------------------------|
                             |-----3-------------------------|
                             |--------4----------------------|

  Солнца белая рать.

  lead 2

  Вот что сталось весной ранней.
                             |--------2----------------------|
                             |-----3-------------------------|
                             |--4----------------------------|

  Заманила пожар-птица
  Hа дороги Земли дурня
                             |--3--2-------------------------|
                             |--------3----------------------|
                             |-------------------------------|

  К Солнцу тропы искать...
 |-------0----------------------|
 |------0-----------------------|
 |-----0------------------------|  + 2 x lead 1
 |----2-------------------------|
 |---2--------------------------|
 |--0---------------------------|


  Leads transcribed by Dead Moroz, corrected by Ksavera  20.12.96
  1st version of rhythm tabbed by Dmoroz                  6.07.97
  corrected with help of Igor Shkolin's version          17.10.97
  Added 2nd guitar part  (Dmoroz)                         5.01.98

  dmoroz@cs.msu.su


                                                                            
             "Дуpак"                                                                           
     бас паpтия для вступления.                                                                      
                                                                           
|                    G           Am          Em                            
|----------------------------------------------------------------|---------
|----------------------------------------------------------------|---------
|----------------------2---2-2---3-2-0---------2------2^0--------|---------
|----------------3---3-----------------3-0---0------------0------|---------
                                                                           
                                                                           
                                                                           
                                                                           
        Em           G               Am          Em                        
|-------0--------------------------------------------------------|---------
|---------4-2-0-2--2----------------------------------h-p-h-p-h--|---------
|----------------------2---2-2---3-2-0---------2---2-0^2^0^2^0^2-|---------
|--------------------3-----------------3-0---0-------------------|---------
                                                                           
                                                                           
                                                                           
                                                                           
|-------0--------------------------------------------------------|---------
|---------4-2-0-2--2---------------------------------------------|---------
|----------------------2---2-2---3-2-0---------2-----------2^0---|---------
|--------------------3-----------------3-0---0-----------------0-|---------
                                                                        
                                                                        
                                                                        
                                                                        
|-------0--------------------------------------------------------|----|
|---------4-2-0-2--2---------------------------------------------|----|
|----------------------2---2-2---3-2-0---------2----0------------|----|
|--------------------3-----------------3-0---0---------3--0------|----|

 Подобpал Dead Moroz 19.12.98

 For quesions, comments mail dmoroz@cs.msu.su 
                 Russian Rock Guitar+Bass page http://www.art.ru/~dmoroz/


 






                       


Copyright © Музыкальный Портал на Куличках 1999-2007      music@kulichki.com


    Stolica.ru    
Реклама в Интернет