Stolica.ru Реклама на Куличках     

Аккорды песен:
A B C D E F G H I J K L M N O P Q R S T U V W X Y Z
АБВГДЕЖЗИКЛМНОПРСТУФХЦЧШЩЭЮЯ





Тексты песен :     A B C D E F G H I J K L M N O P Q R S T U V W X Y Z #

ПОЛНЫЙ СПИСОК ПЕСЕН ГРУППЫ




-->




АЛИСА   

   Нет Войне
   ---------

Подбор: Колотов Николай
Ё-мыйл: trojan_sli@chat.ru

Табы для басухи, но можно играть и на простой гитаре,
только на 4ех верхних струнах :)

riff1
G|----------------|
D|------4-5-4-----|     
A|--4-7-------7-4-|     
E|-5--------------|     

riff2
G|------4-5-4-----|
D|--4-7-------7-4-|
A|-5--------------|
E|----------------|

riff3
   H       A
G|-----------------|
D|---6-9-6---4-7-4-|
A|-7-------5-------|
E|-----------------|

riff4
G|-----------------|
D|-----------------|
A|---4-5-6-7-7-7-7-|
E|-5---------------|


 Em(riff1)
Мой рок-н-ролл никогда не был первым,
Он даже не был вторым,   
 A(riff2)
Но я его играю день изо дня,
        Em(riff1)
Я не хочу расставаться с ним.
  H(riff3)                A
Право на него я оставляю за собой -
  Em(riff4)
Мой рок-н-ролл, мой!

Пусть мне говорят, что я ничего не открыл
И будто это не мой стиль,
Но я не собираюсь ничего открывать,
Я кричу: "Бис!" тем, кто открыл.
И все же право на него я оставляю за собой,
Мой рок-н-ролл, мой!

Я не претендую на место вверху,
Я просто пытаюсь петь.
Я не хочу копаться в грязном белье,
Пусть будет все, как есть.
Но кой-какое право я оставлю за собой -
Мой рок-н-ролл, мой!

Нет войне! Даешь рок-н-ролл!

 






                       


Copyright © Музыкальный Портал на Куличках 1999-2007      music@kulichki.com


    Stolica.ru    
Реклама в Интернет