Stolica.ru Реклама на Куличках     

Аккорды песен:
A B C D E F G H I J K L M N O P Q R S T U V W X Y Z
АБВГДЕЖЗИКЛМНОПРСТУФХЦЧШЩЭЮЯ





Тексты песен :     A B C D E F G H I J K L M N O P Q R S T U V W X Y Z #

ПОЛНЫЙ СПИСОК ПЕСЕН ГРУППЫ




-->




АЛИСА   
                                 Трасса Е95
                            (Концертная версия).

               Am      Dm     Am    Dm     Am      Dm     Am    Dm
|--------------------------------------------------------------------------|
|--------------------------------------------------------------------------|
|--------------------------------------------------------------------------|
|----------------2---------------------------2---------------5--2-----3----|
|--------------0-------5-3-5-----3--5--3---0-------5-3-5-----------5-------|
|--------------------------------------------------------------------------|

 У нас возникли некоторые разногласия, и мне кажется - это правильнее:

               Am      Dm     Am    Dm     Am      Dm     Am    Dm
|--------------------------------------------------------------------------|
|--------------------------------------------------------------------------|
|--------------------------------------------------------------------------|
|----------------2---------------------------2---------------5--2-----3----|
|--------------0-------2-3-5-----3--5--3---0-------2-3-5-----------5-------|
|--------------------------------------------------------------------------|

  Tabbed by Dmoroz/Ksavera Sept 97.


 






                       


Copyright © Музыкальный Портал на Куличках 1999-2007      music@kulichki.com


    Stolica.ru    
Реклама в Интернет