Stolica.ru Реклама на Куличках     

Аккорды песен:
A B C D E F G H I J K L M N O P Q R S T U V W X Y Z
АБВГДЕЖЗИКЛМНОПРСТУФХЦЧШЩЭЮЯ





Тексты песен :     A B C D E F G H I J K L M N O P Q R S T U V W X Y Z #

ПОЛНЫЙ СПИСОК ПЕСЕН ГРУППЫ




-->




АЛИСА   

  "Белая Невеста"
   (Чумычкин - Кинчев)
   

   Вступление
   Тут две гитары... по крайней мере я больше не слышу :)))
                                                                     
E||---------------------|-----------------------|----------------------|
B||---------------------|-----------------------|----------------------|
G||*--------------------|-----------------------|----------------------|
D||*------------2-------|-------------2----2----|------------2---------|
A||---------------------|-----------------------|----------------------|
E||---0----0------------|-----------------------|--0----0--------------|
 ||   pm----|           |                       |  pm----|             |
 ||                     |                       |                      |
E||---------------------|-----------------------|----------------------|
B||---------------------|-----------------------|----------------------|
G||*--------------------|-----------------------|----------------------|
D||*--------------------|-----------------------|----------------------|
A||---------------------|--------0----0---------|----------------------|
E||---0--------------0--|--2--3------------3----|--0---------------0---|

                                                                 
|-----------------------|----------------------|-----------------------|
|-----------------------|----------------------|-----------------------|
|-----------------------|----------------------|-----------------------|
|-------------2----2----|----------------------|-----------------------|
|-----------------------|------------4----4----|-------------4----4----|
|-----------------------|--0----0--------------|-----------------------|
|                       |                      |
|-----------------------|----------------------|-----------------------|
|-----------------------|----------------------|-----------------------|
|-----------------------|----------------------|-----------------------|
|-----------------------|----------------------|-----------------------|
|--------0----0---------|----------------------|--------0----0---------|
|--2--3------------3----|--0----------------0--|--2--3------------3----|

                                                                    
|----------------------|------------------------||
|----------------------|------------------------||
|----------------------|-----------------------*||
|----------------------|-----------------------*||
|------------4----4----|-------------4----4-----||
|--0----0--------------|------------------------||
|                      |                        ||
|                      |                        ||
|----------------------|------------------------||
|----------------------|------------------------||                      
|----------------------|-----------------------*||
|----------------------|-----------------------*||                     
|----------------------|--------0----0----------||                     
|--0----------------0--|--2--3------------3-----||
                                                       


  Куплет

  A5				      F5
  Душу в пятки      унесло            Только высветил  число
|----------------|-----------------|---------------|-----------------|
|----------------|-----------------|---------------|-----------------|
|*---------------|-----------------|---------------|-----------------|
|*---------------|-----------------|---------------|-----------------|
|---7--7---------|-----------------|--3--3---------|--0----0----0----|
|---5--5---------|--8--5-8--5-8----|--1--1---------|-----1----1------|
    p.m.---------------------------------------------------------|

  E5
  ча-ас!                                                             4x
|----------------|-----------------|---------------|-----------------||
|----------------|-----------------|---------------|-----------------||
|----------------|-----------------|---------------|----------------*||
|----------------|------h----------|---------------|------h---------*||
|--------7-------|--5--2^5--2------|--------7------|--5--2^5--2------||
|--0--0----------|------------3----|--0--0---------|------------3----||


    G5              D/F#              E5 
  Лишь верой      укрепи в          пути,     
|----------------|-----------------|---------------|------------------|
|----------------|-----------------|---------------|------------------|
|----------------|-----------------|---------------|------------------|
|----------------|-----------------|---------------|------------------|
|--5----5--------|--5----5---------|--2----2-------|--7--7--7--5------|
|--3----3--------|--2----2---------|--0----0-------|----------------7-|


    G5             D/F#              H5        
 Я не спешу,            у нас все впереди.
                                                                
|----------------|-----------------|--------------------||
|----------------|-----------------|--------------------||
|----------------|-----------------|--------------------||
|----------------|-----------------|--------------------||
|--5----5--------|--5----5---------|--9----9------------||
|--3----3--------|--2----2---------|--7----7------------||
     
 
 For quesions, comments mail dmoroz@cs.msu.su
                 Russian Rock Guitar+Bass page http://www.cs.msu.su/~dmoroz/



 






                       


Copyright © Музыкальный Портал на Куличках 1999-2007      music@kulichki.com


    Stolica.ru    
Реклама в Интернет