Stolica.ru Реклама на Куличках     

Аккорды песен:
A B C D E F G H I J K L M N O P Q R S T U V W X Y Z
АБВГДЕЖЗИКЛМНОПРСТУФХЦЧШЩЭЮЯ





Тексты песен :     A B C D E F G H I J K L M N O P Q R S T U V W X Y Z #

ПОЛНЫЙ СПИСОК ПЕСЕН ГРУППЫ




-->




АЛИСА   

      С О Л Н Ц Е В О Р О Т    АлисА - К. Кинчев.
      -------------------------------------------

Подбор: Колотов Николай 
mailto: trojan_sli@chat.ru

Сразу предупреждаю, что подбирал для акустики.



Так играется первый куплет:

   Am      C       Dm      Am
1|-0----0--0----0--1----1---0----------
2|-1----1--1----1--3----3---1----------
3|-2--2----2--2----2--2-----2----------
4|-----------------0-------------------
5|-0-------3---------------0-----------
6|-------------------------------------
   Em      C       F       Em                               
1|-0----0--0----0--1----1---0----------
2|-0----0--1----1--1----1---0----------
3|-0--0----2--2----2--2-----0----------
4|-------------------------------------
5|-2-------3-------3-------2-----------
6|-------------------------------------

Остальные куплеты следует играть боем.



 Am             C             Dm       Am
Летний день к солнцу в тень босиком по воде
 Em           C     F            Em
Пробежим, от души сложим песню звезде
Как легко видеть свет в небе на головой
Да плести ереси плетку твердой рукой

До зари разводить над рекою костры
По грибы, ягоды заплутать до поры
Видеть птиц, слышать птиц, вместе с ними лететь
До высокой звезды песни светлые петь

 Em     Am
Солнцеворот
 F     C(III) C(III)           A
Вышел в июнь. Небо открыло глаза.
Солнцеворот
Лето зажег. Скоро начнется гроза.

Ясен день, ночь светла, в сердце солнца лучи
От весны к осени золотые ключи
В каждом стебле земли слышу шорохи лет
Благодать зовут собирать словно липовый цвет

Солнцеворот
Вышел в июнь - Небо открыло глаза.
Солнцеворот
Лето зажег - Скоро начнется гроза. 



 






                       


Copyright © Музыкальный Портал на Куличках 1999-2007      music@kulichki.com


    Stolica.ru    
Реклама в Интернет