Stolica.ru Реклама на Куличках     

Аккорды песен:
A B C D E F G H I J K L M N O P Q R S T U V W X Y Z
АБВГДЕЖЗИКЛМНОПРСТУФХЦЧШЩЭЮЯ





Тексты песен :     A B C D E F G H I J K L M N O P Q R S T U V W X Y Z #

ПОЛНЫЙ СПИСОК ПЕСЕН ГРУППЫ




-->




АЛИСА   

                 АЛИСА "Спокойная Ночь" (автор В.Цой)

подбор: Колотов Николай
Email: kolotov@gala.net

Основной ход (riff1)
|--------------------------|--------------------------|--------------------------|
|--------------------------|--------------------------|--------------------------|
|--------------------------|--2--2--2-----------------|--------------------------|
|-----------0--0--0--0--0--|-----------0--0--0--0--0--|-----------2--2--2--2--2--|
|--2--2--2-----------------|--------------------------|--4--4--4-----------------|
|--------------------------|--------------------------|--------------------------|
                                                      
|--------------------------|
|--------------------------|
|--------------------------|
|--2--2--2--0--0-----0--0--|
|-----------------4--------|
|--------------------------|

Припев (chorus)
  F             Em           Am                                         
|-x--x-x-x--x---x--x-x-x-x---x---x----------------3-----|
|-x--x-x-x--x---x--x-x-x-x---x---x------------------1---|
|-x--x-x-x--x---x--x-x-x-x---x---x--------------------0-|
|-x--x-x-x--x---x--x-x-x-x---x---x----------------------|
|-x--x-x-x--x---x--x-x-x-x---x-------0-0-0-3-3-3--------|
|-x--x-x-x--x---x--x-x-x-x---x--------------------------|

Вступление перед третьим куплетом (riff2)
(здесь "x" - приглушенная нота)
|---------------------------------------------7-----------|
|-x-x-7--x-x-7--x-x-7--x-x-7-7--x-x-5--x-x-5--5---5-3-2-3-|
|-x-x-5--x-x-5--x-x-5--x-x-5-5--x-x-3--x-x-3--------------|

Третий куплет (riff3)
|<-4x-->|<-4x-->|-x-x-7-|<-4x-->|
|-x-x-7-|-x-x-5-|-x-x-7-|-x-x-7-|
|-x-x-7-|-x-x-5-|-x-x-5-|-x-x-7-|
|-x-x-5-|-x-x-3-|<-4x-->|-x-x-5-|

Соло (solo)
|-----------------------------------------------------------5-2-0------|
|------------------------------------------------------0--3--------2-2-|
|-----2-----------------2-----2----------------------2-----------------|
|---0---4-2-----0-2---0-----0---4-2-----0-2---0----0-------------------|
|-2---------4-4-----4-----2---------4-4-----4---4----------------------|
|----------------------------------------------------------------------|
                                       |->затихает...
|---0-----0---------5-----5-2-0---------------------|
|-3---2-3---3-2-3-2---0-3-------2-2-3--2-3-5--2-3-5-|
|---------------------------------------------------|
|---------------------------------------------------|
|---------------------------------------------------|
|---------------------------------------------------|


riff 1
 Am                              G
Крыши домов дрожат под тяжестью дней,
 Dm             Am
Небесный пастух пасет облака,
 Am                      G
Город стреляет в ночь дробью огней,
 Dm            Am
Но ночь сильней, ее власть велика.
        
        Сhorus
        F              Em
        Тем, кто ложится спать -
                   Am
        Спокойного сна.
F         Em       Am
        Спокойная ночь.
        F              Em
        Тем, кто ложится спать -
                   Am
        Спокойного сна.
F         Em       Am
        Спокойная ночь.

riff1 (аккорды A5 G5 D5 A5)

Я ждал это время, и вот это время пришло,
Те, кто молчал, перестали молчать.
Те, кому нечего ждать, садятся в седло,
Их не догнать, уже не догнать.

Chorus
riff2 (x2)
riff3

Соседи приходят, им слышится стук копыт,
Мешает уснуть, тревожит их сон.
Те, кому нечего ждать, отправляются в путь
Те, кто спасен, те, кто спасен.

Chorus
solo




           Спокойная  ночь   (соло)  2-й вариант
           ------------------------
          Автор подбора :  Неизвестен

3 раза с вариациями это:
e|---------------------------------------------------------|
b|-----------8---------------------------------------------|
g|*-------------9/10--9h10p9-------------------------9----*|
d|*-------7-------------------9--9h10--12---9-9h10--------*|
a|--8h9p8--------------------------------------------------|
E|---------------------------------------------------------|
Затем:
e|---------------------------------------------------------|
b|-----------8---------------------------------------------|
g|--------------9/10--9h10p9-------------------------------|
d|--------7-------------------9-9h10h12-9h10h12-9h10h12----|
a|--8h9p8--------------------------------------------------|
E|---------------------------------------------------------|

А дальше?...
>e|---------------------------------------------------------|
>b|--------10^----------------------------------------------|
>g|--10^12^-------------------------------------------------|
>d|---------------------------------------------------------|
>a|---------------------------------------------------------|
>E|---------------------------------------------------------|



 






                       


Copyright © Музыкальный Портал на Куличках 1999-2007      music@kulichki.com


    Stolica.ru    
Реклама в Интернет