Stolica.ru Реклама на Куличках     

Аккорды песен:
A B C D E F G H I J K L M N O P Q R S T U V W X Y Z
АБВГДЕЖЗИКЛМНОПРСТУФХЦЧШЩЭЮЯ





Тексты песен :     A B C D E F G H I J K L M N O P Q R S T U V W X Y Z #

ПОЛНЫЙ СПИСОК ПЕСЕН ГРУППЫ




-->




АЛИСА   
                                   "Плач"

E||-------------------------|------------------------|------------------||
B||-------3-----------------|------------------------|------------------||
G||--0-------0--0-2-3--2p0--|--0---------------------|------------------||
D||-------------------------|------------------------|------------------||
A||-------------------------|------------------------|------------------||
E||-------------------------|------------------------|------------------||
 ||                         |                        |                  ||
E||-------------------------|------------------------|------------------||
B||-------------------------|-----3---------h-p------|------------------||
G||-------------------------|--------2--0--2^3^2-----|------------------||
D||-------------------------|--3---------------------|------------------||
A||-------------------------|------------------------|------------------||
E||-------------------------|------------------------|------------------||

  Подобраль дэд Мороз.

 For quesions, comments mail dmoroz@cs.msu.su
                 Russian Rock Guitar+Bass page http://www.cs.msu.su/~dmoroz/


 






                       


Copyright © Музыкальный Портал на Куличках 1999-2007      music@kulichki.com


    Stolica.ru    
Реклама в Интернет