Stolica.ru Реклама на Куличках     

Аккорды песен:
A B C D E F G H I J K L M N O P Q R S T U V W X Y Z
АБВГДЕЖЗИКЛМНОПРСТУФХЦЧШЩЭЮЯ





Тексты песен :     A B C D E F G H I J K L M N O P Q R S T U V W X Y Z #

ПОЛНЫЙ СПИСОК ПЕСЕН ГРУППЫ




-->




Аквариум   
                       "Сидя на красивом холме.."
                       --------------------------
                       Автор подбора :  Неизвестен

Проигрыш:
    D
 |-----2-2--2---2-2--2---2-2--2---2-2--2-----
 |-----3-3--3---3-3--3---3-3--3---3-3--3-----
 |-----2-2--2---2-2--2---2-2--2---2-2--2-----
 |--0------------------0---------------------
 |------------0-----------------0------------
 |-------------------------------------------

    D       Е      D
 |-----2-2----0-0-----2-2--2----2-2------
 |-----3-3----0-0-----3-3--3----3-3------
 |-----2-2----2-2-----2-2--2----2-2------
 |--0--------------0---------------------
 |----------2----------------0-----------
 |---------------------------------------
  Сидя на красивом холме,

    D
 |-----2--2-2---2--2-2---2--2-2---2--2-2-
 |-----3--3-3---3--3-3---3--3-3---3--3-3-
 |-----2--2-2---2--2-2---2--2-2---2--2-2-
 |--------4--------4--------4------------
 |--5---------4--------3--------2--------
 |---------------------------------------
  Я часто вижу сны и вот что кажется мне -

  E
 |-----4--4-4---4--4-4---4--4-4---4--4-4-
 |-----5--5-5---5--5-5---5--5-5---5--5-5-
 |-----4--4-4---4--4-4---4--4-4---4--4-4-
 |--------6--------6--------6------------
 |--7---------6--------5--------4--------
 |---------------------------------------
  Что дело не в деньгах и не в количестве женщин,

  A         D      G      A
 |-----5-----------------------0-0-0------
 |-----5-5----3-3-----3-3------2-2-2------
 |-----6-6----2-2-----4-4------2-2-2------
 |-------7----4-4-----5-5--------2--------
 |-------7------5-------5---0-------------
 |--5-------2------3----------------------
  И не в старом фольклоре, и не в новой волне

  Hо мы идем вслепую в странных местах,
  И все, что есть у нас - это радость и страх:
  Страх, что мы хуже, чем можем,
  И радость того, что все в надежных руках.

   ?
  И в каждом сне я никак
   ?
  Hе могу отказаться
   ?
  И куда-то бегу...
   ?
  Hо когда я проснусь,
   ?                             A
  Я надеюсь - ты будешь со мной.


 






                       


Copyright © Музыкальный Портал на Куличках 1999-2007      music@kulichki.com


    Stolica.ru    
Реклама в Интернет