Stolica.ru Реклама на Куличках     

Аккорды песен:
A B C D E F G H I J K L M N O P Q R S T U V W X Y Z
АБВГДЕЖЗИКЛМНОПРСТУФХЦЧШЩЭЮЯ





Тексты песен :     A B C D E F G H I J K L M N O P Q R S T U V W X Y Z #

ПОЛНЫЙ СПИСОК ПЕСЕН ГРУППЫ




-->




Аквариум   

                            ГОСУДАРЫНЯ
                            ----------

 Подобрал : Ilya Sherenkov  (2:5005/33.3333)

Здесь часто используется способ игры, когда струны щипаются одна вслед другой,
а не все одновременно, типа гусли :) , это и отражено в записи. А так оно
простенькое и со вкусом:

---8-8-7-8-7----5-3-----3--------5-3-----3--------1-0-----0-----0---
--5------------6------1---1-----6------1---1-----3------1---1-----1-
-5------------5-----0-------0--5-----0-------0--2-----2-------2-----
-------------0----------------0----------------0--------------------
-0----------------3----------------3----------------0---------------
--------------------------------------------------------------------

Да, и оно, как видно, в ля-миноре. БГ юзает капо на втором ладу - у него
си-минор. А мне так приятнее :).

     Am      F                      C
Государыня, помнишь ли как строили дом:
  Dm                   F и с ним -1-0-1-0-1-  на первой струне
Всем был хорош, но пустой...
  Am         F                  C
Столько лет шили по снегу серебром,
  Dm                     F    -0-1- на второй и Am
Боялись прикоснуть кислотой...

Столько лет пели до седьмых петухов,
Пели, но боялись сказать:
"Государыня, ведь если ж ты хотела врагов,
кто же тебе смел отказать?"

первое соло +

-1-----0-1-0-1-3-5-----5-c-a-8-7-5---------------0-----0-----0----
-----1---------------6---d-c-a-8-----6---------------1---1-----1--
---2---------------5---------------7---7-----------2-------2------
-3---------------0---------------0-------------0-2----------------
-----------------------------------------0-2-3--------------------
------------------------------------------------------------------

система цифирь - шестнадцатеричная

+ опять первое соло

Что же мы? До сих пор все пьем эту дрянь,
Цапаем чертей за бока.
Hам же сказано, что утро не возьмет свою дань,
Обещано, что ноша легка...

Полно, зря ли мы столько лет все строили дом,
Hаша ли вина, что пустой?
Зато теперь мы знаем, каково серебром,
Посмотрим, каково кислотой...

и здесь первое соло становится последним... зрители в слезах...


 






                       


Copyright © Музыкальный Портал на Куличках 1999-2007      music@kulichki.com


    Stolica.ru    
Реклама в Интернет