Stolica.ru Реклама на Куличках     

Аккорды песен:
A B C D E F G H I J K L M N O P Q R S T U V W X Y Z
АБВГДЕЖЗИКЛМНОПРСТУФХЦЧШЩЭЮЯ





Тексты песен :     A B C D E F G H I J K L M N O P Q R S T U V W X Y Z #

ПОЛНЫЙ СПИСОК ПЕСЕН ГРУППЫ




-->




АГАТА КРИСТИ   
                               Я буду там
                               ----------
                     Автор подбора :  Неизвестен

Вступление

1 ------------------------------------------------------------------
2 ------------------------------------------------------------------
3 ---------2-------------2-2------------------------------------0---
4 -----0-0---4-------0-0-----4---4-4-2-2-0-------0----------------4-
5 -2-2-----------2-2-----------------------4-3-----4-3---0-0-3-3----
6 ------------------------------------------------------------------

1 -----------------------------3-3-2----10-9-7-|
2 ---------------5-5-3-3-2-1-------------9-8---|
3 -----------1---------------------------------|
4 -----0-0-4-----------------------------------|
5 -2-2-----------------------------------------|
6 ---------------------------------------------|

Проигрышь во время куплета
1 ----------------------|
2 ----------------------|
3 ------------------1---|
4 ------2-4-------4-----|
5 --0-2-------0-2-------|
6 ----------------------|

После куплета

1 -----------------------------------------------------------------------|
2 -----------------------------------------------------------------------|
3 -------------2-2-------------------------------------0---------------1-|
4 -4-------0-0-----4---4-4-2-2-0-------0-----------------4-------0-0-4---|
5 -----2-2-----------------------4-3-----4-3---0-0-3-3-------2-2---------|
6 -----------------------------------------------------------------------|

1 ------3-2-----------3-3---10-9--7-7-7---|
2 ----3-----3-2-1---1--------9-8----------|
3 --1-------------------------------------|
4 ----------------------------------------|
5 ----------------------------------------|
6 ----------------------------------------|

 






                       


Copyright © Музыкальный Портал на Куличках 1999-2007      music@kulichki.com


    Stolica.ru    
Реклама в Интернет