Stolica.ru Реклама на Куличках     

Аккорды песен:
A B C D E F G H I J K L M N O P Q R S T U V W X Y Z
АБВГДЕЖЗИКЛМНОПРСТУФХЦЧШЩЭЮЯ





Тексты песен :     A B C D E F G H I J K L M N O P Q R S T U V W X Y Z #

ПОЛНЫЙ СПИСОК ПЕСЕН ГРУППЫ




-->




АГАТА КРИСТИ   

                          Сказочная Тайга
                          ---------------

     Подбор   : Yegor Dolzhikov   (2:463/5050)

только соло подпpипевное сначала надо игpать в
pе-миноpе, и только последний pаз в Em.

       Dm        Gm      A         F       Dm        G     A     Dm
1|-----------5-8-6-------5-------6-5-------------5-8-7-----9-----10-|
2|-----------------------------5------------------------------------|
3|-----7---7-----------------6-------------7---7--------------------|

  Такой еще ход:         Соло:
      A7                   Em           Am          H            G
1|----5-5---------------|--------------------------------------------------|
2|--------8-8-6-6-5-5---|--8--7-----7-8-10-8--------7----------7-8-7-------|
3|----------------------|--------9------------9--------9--8--9--------7----|
                                           Втоp
   Em            A          H7               Em
1|----0-----------------0--------------11-|--12\----|
2|-0-------------12-10--------------12----|---------|
3|-------11--12-------------12--11--------|---------|

 






                       


Copyright © Музыкальный Портал на Куличках 1999-2007      music@kulichki.com


    Stolica.ru    
Реклама в Интернет