Stolica.ru Реклама на Куличках     

Аккорды песен:
A B C D E F G H I J K L M N O P Q R S T U V W X Y Z
АБВГДЕЖЗИКЛМНОПРСТУФХЦЧШЩЭЮЯ





Тексты песен :     A B C D E F G H I J K L M N O P Q R S T U V W X Y Z #

ПОЛНЫЙ СПИСОК ПЕСЕН ГРУППЫ




-->




АГАТА КРИСТИ   
                         Вольно
                      ----------
               Автор подбора :  Неизвестен

вступление
1 -7---------5-------------------7--------------
2 ---8-5-5\7---5-----7-8-7-8-7-8---5------------    играется 2 раза
3 ---------------5------------------------------
4 -----------------5----------------------------
5 ----------------------------------------------
6 ----------------------------------------------
проигрышь в середине куплета
1 -7--------------------------------------------
2 ---8------------------------------------------
3 -----5-4--------------------------------------
4 ----------------------------------------------
5 ----------------------------------------------
6 ----------------------------------------------
еще такой проигрышь перед соло
1 ----5---5\7------3----2-----5--5\7------3----2
2 --5---------5--3----3-----5--------5--3----3--
3 ----------------------------------------------
4 ----------------------------------------------
5 ----------------------------------------------
6 ----------------------------------------------
сам соляк (за 100% правильности не отвечаю)

                1\
1 --4-5-7-9-7-9--9-7-5-7-9-9-9-9----------------
2 -7-----------------------------7-8-7---------- дальше повторяется
3 ---------------------------------------------- с 1 черты
4 ----------------------------------------------
5 ----------------------------------------------
6 ----------------------------------------------
  и в конце повторяется раз 5
1 ---7--7\9-------5----4------------------------
2 -7--------7---5----5--------------------------
3 ----------------------------------------------
4 ----------------------------------------------
5 ----------------------------------------------
6 ----------------------------------------------

 






                       


Copyright © Музыкальный Портал на Куличках 1999-2007      music@kulichki.com


    Stolica.ru    
Реклама в Интернет